Anthrax - A Toast To The Extras Chords & Tabs

 

A Toast To The Extras Chords & Tabs

Anthrax Chords & Tabs

Version: 1 Type: Tab 0 ratings
1 star 2 stars 3 stars 4 stars 5 stars
comments

A Toast To The Extras Tab

boxofmetallica@hotmail.com-- eric sewell
enjoi
eb:-----------|
Bb:-----------|
Gb:---2-4p2---|
Db:-0-------4-|
Ab:-----------|
Eb:-----------|

eb:---------------|
Bb:---------------|
Gb:---2-2-4p2-----|
Db:-0---------4-0-|
Ab:---------------|
Eb:---------------|


eb:-----------------------------------------------------|
Bb:-----------------------------------------3p2---------|
Gb:-0-2-4-2---2-2---2-4-2-------2-4-2---2-2-----4p2-----|
Db:---------4-----4-------4p2-4-------4-------------4p2-|
Ab:-----------------------------------------------------|
Eb:-----------------------------------------------------|

eb:------------------------------------------------------|
Bb:------------------------------------------------------|
Gb:-0-2-4-2---2-2---2-4-2-------2-4-2---2-2----2-4-2-----|
Db:---------4-----4-------4p2-4-------4------4-------4p2-|
Ab:------------------------------------------------------|
Eb:------------------------------------------------------|

eb:---------------|
Bb:---------------|
Gb:---2-2-4p2-----|
Db:-0---------4-0-|
Ab:---------------|
Eb:---------------|

eb:-----------------------------------------------------|
Bb:-----------------------------------------3p2---------|
Gb:-0-2-4-2---2-2---2-4-2-------2-4-2---2-2-----4p2-----|
Db:---------4-----4-------4p2-4-------4-------------4p2-|
Ab:-----------------------------------------------------|
Eb:-----------------------------------------------------|

eb:--------------------------------------------------------|
Bb:--------------------------------------------------------|
Gb:-0-2-4-2---2-2---2-4-2-----2-2-2-2-2-2-2--4-4-4-4-4-4-4-|
Db:---------4-----4-------4p2-2-2-2-2-2-2-2--4-4-4-4-4-4-4-|
Ab:---------------------------0-0-0-0-0-0-0--2-2-2-2-2-2-2-|
Eb:--------------------------------------------------------|

gt1
eb:----------------|
Bb:-3-3-3-3-3-3-3--|
Gb:-2-2-0-2-4-2-0--|
Db:-0-0-0-0-0-0-0--|
Ab:----------------|
Eb:----------------|
gt2
eb:---------------|
Bb:---------------|
Gb:---2-2-4p2-----|
Db:-0---------4-0-|
Ab:---------------|
Eb:---------------|


gt1
:-3-3-3-3-3-3-3-3-3-3-3-3-3--2-2-2-2-2-2-2-2-2-2-2-2-2-|
:-3-3-3-3-3-3-3-3-3-3-3-3-3--3-3-3-3-3-3-3-3-3-3-3-3-3-|
:-0-0-0-0-0-0-0-0-0-0-0-0-0--2-2-2-2-2-2-2-2-2-2-2-2-2-|
:-0-0-0-0-0-0-0-0-0-0-0-0-0--0-0-0-0-0-0-0-0-0-0-0-0-0-|
:-2-2-2-2-2-2-2-2-2-2-2-2-2----------------------------|
:-3-3-3-3-3-3-3-3-3-3-3-3-3----------------------------|
gt2
eb:-----------------------------------------------------|
Bb:-----------------------------------------3p2---------|
Gb:-0-2-4-2---2-2---2-4-2-------2-4-2---2-2-----4p2-----|
Db:---------4-----4-------4p2-4-------4-------------4p2-|
Ab:-----------------------------------------------------|
Eb:-----------------------------------------------------|



eb:---------------|
Bb:---------------|
Gb:---2-2-4p2-----|
Db:-0---------4-0-|
Ab:---------------|
Eb:---------------|

[ Tab from: http://www.guitartabs.cc/tabs/a/anthrax/a_toast_to_the_extras_tab.html ]
eb:-----------------------------------------------------|
Bb:-----------------------------------------3p2---------|
Gb:-0-2-4-2---2-2---2-4-2-------2-4-2---2-2-----4p2-----|
Db:---------4-----4-------4p2-4-------4-------------4p2-|
Ab:-----------------------------------------------------|
Eb:-----------------------------------------------------|

eb:--------------------------------------------------------|
Bb:--------------------------------------------------------|
Gb:-0-2-4-2---2-2---2-4-2-----2-2-2-2-2-2-2--4-4-4-4-4-4-4-|
Db:---------4-----4-------4p2-2-2-2-2-2-2-2--4-4-4-4-4-4-4-|
Ab:---------------------------0-0-0-0-0-0-0--2-2-2-2-2-2-2-|
Eb:--------------------------------------------------------|

gt1
eb:----------------|
Bb:-3-3-3-3-3-3-3--|
Gb:-2-2-0-2-4-2-0--|
Db:-0-0-0-0-0-0-0--|
Ab:----------------|
Eb:----------------|
gt2
eb:---------------|
Bb:---------------|
Gb:---2-2-4p2-----|
Db:-0---------4-0-|
Ab:---------------|
Eb:---------------|


gt1
:-3-3-3-3-3-3-3-3-3-3-3-3-3--2-2-2-2-2-2-2-2-2-2-2-2-2-|
:-3-3-3-3-3-3-3-3-3-3-3-3-3--3-3-3-3-3-3-3-3-3-3-3-3-3-|
:-0-0-0-0-0-0-0-0-0-0-0-0-0--2-2-2-2-2-2-2-2-2-2-2-2-2-|
:-0-0-0-0-0-0-0-0-0-0-0-0-0--0-0-0-0-0-0-0-0-0-0-0-0-0-|
:-2-2-2-2-2-2-2-2-2-2-2-2-2----------------------------|
:-3-3-3-3-3-3-3-3-3-3-3-3-3----------------------------|
gt2
eb:-----------------------------------------------------|
Bb:-----------------------------------------3p2---------|
Gb:-0-2-4-2---2-2---2-4-2-------2-4-2---2-2-----4p2-----|
Db:---------4-----4-------4p2-4-------4-------------4p2-|
Ab:-----------------------------------------------------|
Eb:-----------------------------------------------------|

gt1
:-3-3-3-3-3-3-3-3-3-3-3-3-3---------------------------------------------|
:-3-3-3-3-3-3-3-3-3-3-3-3-3--2-2-2-2-2-2-2-2-2-2-2-2-2-2-2--------------|
:-0-0-0-0-0-0-0-0-0-0-0-0-0--2-2-2-2-2-2-2-2-2-2-2-2-2-2-2-7-7-7-7-7-7--|
:-0-0-0-0-0-0-0-0-0-0-0-0-0--2-2-2-2-2-4-4-4-4-4-5-5-5-5-5-7-7-7-7-7-7--|
:-2-2-2-2-2-2-2-2-2-2-2-2-2--0-0-0-0-0-0-0-0-0-0-0-0-0-0-0-0-0-0-0-0-0--|
:-3-3-3-3-3-3-3-3-3-3-3-3-3---------------------------------------------|
gt2
eb:-----------------------------------------------------|
Bb:-----------------------------------------3p2---------|
Gb:-0-2-4-2---2-2---2-4-2-------2-4-2---2-2-----4p2-----|
Db:---------4-----4-------4p2-4-------4-------------4p2-|
Ab:-----------------------------------------------------|
Eb:-----------------------------------------------------|


eb:---------------|
Bb:---------------|
Gb:---2-2-4p2-----|
Db:-0---------4-0-|
Ab:---------------|
Eb:---------------|


gt1
eb:------------------------|
Bb:-3---3---3---3---3---3--|
Gb:-2-2-2-2-2-2-2-2-2-2-2--|
Db:-0-2-0-2-0-2-0-2-0-2-0--|
Ab:---0---0---0---0---0----|
Eb:------------------------|
gt2
eb:------------------------|
Bb:------------------------|
Gb:-7-7-7-7-7-7-7-7-7-7-7--|
Db:-7-7-7-7-7-7-7-7-7-7-7--|
Ab:-5-0-5-0-5-0-5-0-5-0-5--|
Eb:------------------------|

:-----------------------------------------|
:-----------------------------------------|
:-7---------------------------------------|
:-7---------------------------------------|
:-5---------------------------------------|
:-----------------------------------------|
Comments