Anouk - Nobodys Wife Solo Chords & Tabs

 

Nobodys Wife Solo Chords & Tabs

Anouk Chords & Tabs

Version: 1 Type: Tab 0 ratings
1 star 2 stars 3 stars 4 stars 5 stars
comments

Nobodys Wife Solo Tab

   
The Guitarsolo to Nobodys Wife. Couldent find it anywhere so here is my best try this is my first tab so please be patient with me
Tabbed by: RustyDog DK


   C                                                           Am


E|-------------------------------------------------------------|------
B|--15b17r(15)p12----12----------------------------------------|------
G|----------------14----14b16r(14)p12-------14b16r(14)p12------|------
D|------------------------------------14-12---------------14---|-12---
A|-------------------------------------------------------------|------
E|-------------------------------------------------------------|------


     G    G/F#   Em                   C                    Am


E---------------------------------------------------------------------
B----------------------------------------12-12-x-12---x-12-x-12-x-12--
G----------------------------------------12-12-x-12---x-12-x-12-x-12--
D---------------------------------------------------------------------
A-14-12/10-12p10----10----10-12p10-12/14------------------------------
E----------------12----12---------------------------------------------


                               G      G/F#      Em

[ Tab from: http://www.guitartabs.cc/tabs/a/anouk/nobodys_wife_solo_tab.html ]
E-----------------------------------------------15p12-15p12----12-15p-
B-x-12-12-12-12-x-12-x-12-x-12-x-12-12-12-12-12-------------15--------
G-x-12-12-12-12-x-12-x-12-x-12-x-12-12-12-12-12-----------------------
D---------------------------------------------------------------------
A---------------------------------------------------------------------
E---------------------------------------------------------------------


            C                                    Am


E|-12-15p12----12-15p12-15p12-----12-15p12-15p12----12-|-15p12-15p12--
B|----------15----------------15-----------------15----|--------------
G|-----------------------------------------------------|--------------
D|-----------------------------------------------------|--------------
A|-----------------------------------------------------|--------------
E|-----------------------------------------------------|--------------


                           G    G/F#   Em                      C


E|----12--------------------------------------------------------------
B|-15----15p12-15p12----12--------------------------------------------
G|-------------------14----14p12----14-14-14b-14b-12----------12b--14-
D|-------------------------------14------------------14-14-14~--------
A|--------------------------------------------------------------------
E|--------------------------------------------------------------------


               Am                     G           G/F#     Em


E|-------------12~-15-12-15-17b19-----17b19--17p15------|------------
B|-12-15-12-15-------------------------------------17~--|------------
G|------------------------------------------------------|------------
D|------------------------------------------------------|--2--2--x-x-
A|------------------------------------------------------|--2--2--x-x-
 
Comments