Anouk - Michel Chords & Tabs

 

Michel Chords & Tabs

Anouk Chords & Tabs

Version: 2 Type: Tab 0 ratings
1 star 2 stars 3 stars 4 stars 5 stars
comments

Michel Tab

   
 Intro:
e|-------0------------0------------0------------0-----|
B|-3---3---3----3---3---3----3---3---3----3---3---3---|
G|---2-------2----2-------2----2-------2----2-------2-|
D|----------------------------------------------------|
A|----------------------------------------------------|
E|----------------------------------------------------|

 Verse
e|--------0-----------0-----------0-----0------0------|
B|------3---3-------3---3-------3---3-----3------3----|
G|----2-------2---2-------2---2-------2-----2------2--|
D|--0-------------------------------------------------|
A|--------------0-------------------------------------|
E|--------------------------3-------------------------|
  Repeat 4x

Verse:
Hey michel, how's life are you ok?
I wonder if you ever think of me
It's been 9 years since that kiss
I can help but reminisce
Hey michel do you remember
[ Tab from: http://www.guitartabs.cc/tabs/a/anouk/michel_tab_ver_2.html ]
Chorus:
   D                             A                    G 
We walked the street to the beat hand in hand you and me 
D                        A                          G 
Smiling faces so in love hoping that they all could see 
     D                           A              G
That we belong together, you and me against the world
    D                A                                 G                 
But we found out the hard way, guess it wasn't mend to be 
Intro               
Now it's you and her I see

Verse:
You were my first and worst love
And so it only could go wrong
But ain't that just the way you learn
Hey michel I just wanted to let you know
That someone else has stolen my heart
And now another girl has caught your eye
That doesn't mean I don't think of you
I am just hoping that she'll treat you right
Do you remember

Chorus:
   D                             A                    G 
We walked the street to the beat hand in hand you and me 
D                        A                          G 
Smiling faces so in love hoping that they all could see 
     D                           A              G
That we belong together, you and me against the world
    D                A                                 G                 
But we found out the hard way, guess it wasn't mend to be 
Intro               
Now it's you and her I see

It was just a silly dream
Lalalalalalala
Lalalalalalala
Lalalalalalala
Hey michel do you remember
Comments