Anouk - Girl Chords & Tabs

 

Girl Chords & Tabs

Anouk Chords & Tabs

Version: 1 Type: Chords 0 ratings
1 star 2 stars 3 stars 4 stars 5 stars
comments

Girl Chords

   
Girls - Anouk


A:   =577655=
C#m: =446654=
E:   =779997=
B:   =799877=
F#m: =244222=

[git.1]
    C#m          A            E          B
e|-x-4---x-4-|-x-5---x-5--|-x-7--x-7--|-x-7--x--7--|
B|-x-5---x-5-|-x-5---x-5--|-x-9--x-9--|-x-7--x--7--|
G|-x-6---x-6-|-x-6---x-6--|-x-9--x-9--|-x-8--x--8--|
D|-x-6---x-6-|-x-7---x-7--|-x-9--x-9--|-x-9--x--9--|
A|-x-4---x-4-|-x-7---x-7--|-x-7--x-7--|-x-9--x--9--|
E|-x-5---x-5-|-x-5---x-5--|-x-7--x-7--|-x-7--x--7--|

[git.2]
    A                       E          
E|--5-5-5-5-5|5-5-5-5-5-5|7-7-7-7-7-7|7-7-7-7-7-7-|
B|--5-5-5-5-5|5-5-5-5-5-5|9-9-9-9-9-9|9-9-9-9-9-9-|
G|--6-6-6-6-6|6-6-6-6-6-6|9-9-9-9-9-9|9-9-9-9-9-9-|
D|-----------|-----------|-----------|------------|
A|-----------|-----------|-----------|------------|
E|-----------|-----------|-----------|------------|

[verse] git.1
C#m                     A
Girl, Girl, Girl when I hear you talk, 
E                     B
Oeh___my mind get's blocked girl.
C#m            A
Speak up cause my jaw is locked, 
          E              B
which is good, good for me girl.
 C#m             A             E
Big hawks like a warning sign, 
        B      
I'm to blind to see
 C#m             A                  
Speak up yes I'm coming down 
         E                        B   C#m 
with an ice cold fever, ice cold fever

[git.2] git.1 keep going!
 A           E 
ice cold fever 
[ Tab from: http://www.guitartabs.cc/tabs/a/anouk/girl_crd.html ]
 F#m                             A
Still got my hands there clinging, so I just keep going. 
E        B            A            F#m          A   B
I don't know where I belong, could I belong to you 
    E         B        A               F#m    
No, I don't know where I belong, could I belong... 

Girl, Girl, Girl get it while it's hot they say, 
you see I'm burning up here. 
I want to but I just can't stop and it hurts, 
it hurst like hell girl. 
You turn me inside out and upside down
You got me head over heals 
I'm stuck yes I'm coming down 
with an ice cold fever, ice cold fever
ice cold fever

Still got my hands there clinging, so I just keep going. 
I don't know where I belong, could I belong to you 
No, I don't know where I belong, could I belong...

      A
Could I belong...

[git1 keep going] + git.2
C#m | A | E | B | 2x

Still got my hands there clinging, so I just keep going. 
I don't know where I belong, could I belong to you 
No, I don't know where I belong, could I belong...

              A              C#m       A
O yeah, Could I belong...to you, you, you
    E         B       C#m       A
To you, yeah you, to you, you, you
    E         B       C#m       A
To you, yeah you, to you, you, you
     E            B       C#m       A
Yeah I belong to you, To you, yeah you
     E            B       
Yeah I belong to you

Outro: C#m | A | C#m | A | 2x not sure, other is also:D

any failures mail me plz jorisbrand@hotmail.com
Comments