Anonymus - Prosternez-vous Chords & Tabs

 

Prosternez-vous Chords & Tabs

Anonymus Chords & Tabs

Version: 1 Type: Tab 0 ratings
1 star 2 stars 3 stars 4 stars 5 stars
comments

Prosternez-vous Tab

   
Tuning: E
Intro1
|---------(4x)-----------------|-----------------------------------------|
|------------------------------|-----------------------------------------|
|------------------------------|-----------------------------------------|
|-2-----5-----3-----5-----9-8--|--9-8-----9-8-----7----------------------|
|-2-----5-----3-----5-----9-8--|--9-8-----9-8-----7----------------------|
|-0-000-3-000-1-000-3-000-7-6--|--7-6-0-0-7-6-0-0-5----------------------|
   ...   ...   ...   ...             . .     . .
Intro2
|-----------------------------------------------------------------------|
|-----------------------------------------------------------------------|
|-----------------------------------------------------------------------|
|-2---------9-8---------9-8---------9-8-8-7-7---------------------------|
|-2---------9-8---------9-8---------9-8-8-7-7---------------------------|
|-0-0-0-0-0-7-6-6-6-6-6-7-6-6-6-6-6-7-6-6-5-5---------------------------|
    . . . .     . . . .     . . . .
Verse1
|--------(4x)------------------|-----------------------------------------|
|------------------------------|-----------------------------------------|
|------------------------------|-----------------------------------------|
|------------------------------|--10--9--8-------------------------------|
|-7---7---7---8-----5h7h8-7-5--|--10--9--8-------------------------------|
|---0---0---0---0-0------------|--8---7--6-------------------------------|
    .   .   .   . .
Riff1
|---------------|--------------------------------------------------------|
|---------------|--------------------------------------------------------|
|---------------|--------------------------------------------------------|
|-10-9--12-10-9-|-7-7-7-7-7-7--------------------------------------------|
|-10-9--12-10-9-|-7-7-7-7-7-7--------------------------------------------|
|-8--7--10--8-7-|-5-5-5-5-5-5--------------------------------------------|
Riff2
|-----------------------------------------------------------------------|
|-----------------------------------------------------------------------|
|-----------------------------------------------------------------------|
|-7---7---------7---7-9-7---7-7---7---------7---------------------------|
|-7---7-8-7-5-7-7---7-----8---7---7-8-7-5-7-7-------7-------------------|
|-55555---------55555---------55555---------5-5h7h8---8-----------------|
  .....         .....         .....
SOLO
|----8-7h8p7-------------------------8-7h8p7-10--------------------------|
|-10---------10-8--6-8-6h8p6-5-6--8-------------8------------------------|
|---------------------------------------------------12-10h12p10-9--------|
|-------------------------------------------------10-------------10------|
|------------------------------------------------------------------------|
|------------------------------------------------------------------------|

|-------7h8h10-8-7----8h7-----------5-7-8-7-5-----------7-8-7----8h7----|
|-10-10------------10-----10--6-6h8-----------8--8-8h10-------10----10--|
|-----------------------------------------------------------------------|
|-----------------------------------------------------------------------|
|-----------------------------------------------------------------------|
|-----------------------------------------------------------------------|

----------------7-8----------------------------------------------------|
-----------8-10--------------------------------------------------------|
----7-9-10-------------------------------------------------------------|
-10-------------------10-9---------------------------------------------|
----------------------10-9---------------------------------------------|
-----------------------8-7---------------------------------------------|
[ Tab from: http://www.guitartabs.cc/tabs/a/anonymus/prosternez_vous_tab.html ]
Comments