Anonymous - Ring Of Fire Chords & Tabs

 

Ring Of Fire Chords & Tabs

Anonymous Chords & Tabs

Version: 1 Type: Tab 0 ratings
1 star 2 stars 3 stars 4 stars 5 stars
comments

Ring Of Fire Tab

email me if you have any questions
cocobro5@hotmail.com

Intro:
e|---------------------------------------------------------|
B|---------------------------------------------------------|
G|-----0-----0-------------0-----0-------------------------|
D|-------2-----2-------------2-----2-----------0-----0-----|
A|-2-2-----2-----2-----3-3-----3-----3-----------2-----2---|
E|-----------------------------------------3-3-----3-----3-|

e|-----------------|
B|-----------------|
G|-----------0-----|  repeat 4 times
D|-----0-------0---|
A|-------0-------0-|
E|-1-1-----1-------|


Main part:
e|-0--0--2----|
B|-0--1-(2)---|
G|-0--0--0----|  strum each chord several times
D|-2--2--0----|
A|-2--3--2--0-|
E|-x--x--3--1-|
[ Tab from: http://www.guitartabs.cc/tabs/a/anonymous/ring_of_fire_tab.html ]
Verse:
e|---------------------------------------------------------|
B|---------------------------------------------------------|
G|-0-0-0-0--0-0-0-0----------------------------------------|
D|-2-2-2-2--2-2-2-2--0-0-0-0--0-0-0-0----------------------|
A|-2-2-2-2--3-3-3-3--3-3-3-3--0-0-0-0----------------------|
E|-------------------2-2-2-2--1-1-1-1----------------------|
   * * * *  * * * *  * * * *  * * * * (palm mute)

Outro:
e|---------------------------------------------------------|
B|---------------------------------------------------------|
G|-----0-----0-------------0-----0-------------------------|
D|-------2-----2-------------2-----2-----------0-----0-----|
A|-2-2-----2-----2-----3-3-----3-----3-----------2-----2---|
E|-----------------------------------------3-3-----3-----3-|
   * * * * *  * * *    * * * * * * * *     * * * * * * * *
e|-----------------|
B|-----------------|
G|-----------0-----|  repeat until fade
D|-----0-------0---|
A|-------0-------0-|
E|-1-1-----1-------|
   * * * * * * * * (palm mute)
Comments