Annihilator - Sounds Good To Me Chords & Tabs

 

Sounds Good To Me Chords & Tabs

Annihilator Chords & Tabs

Version: 1 Type: Tab 0 ratings
1 star 2 stars 3 stars 4 stars 5 stars
comments

Sounds Good To Me Tab

   
Annihilator - Sounds Good To Me

tabbed by MaJK
smuakr@hotmail.com

Tuning - E A D G B E


Both Gtrs
play 3 times
|-------------------------------4-----4--------|
|------0---------------0----------0-----0------|
|----3----3----------3----3---------3-----3----|
|--4--------4------4--------4------------------|
|----------------------------------------------|
|----------------------------------------------|

Gtr 3
play twice
|--------------|
|--------------|
|-4S6--3-------|
|---------6----|
|--------------|
|--------------|


|--------------|
|--------------|
|-6S7--6--4----|
|--------------|
|--------------|
|--------------|


|--------------|
|--------------|
|-4S6--3-------|
|---------6----|
|--------------|
|--------------|


4th time
Gtr 1
|-------------------------------0-0----------------------|
|-----0---------------0-------4------4-------0-----0-----|
|---3----3----------3---3---6----------6-6-----3-----3---|
|-4--------4-------------------------------------4-----4-|
|--------------------------------------------------------|
|--------------------------------------------------------|


Gtr 2
|-------------------------------0-0----------------------|
|-----0---------------0-------7------7-------0-----0-----|
|---3----3----------3---3---9----------9-9-----6-----6---|
|-4--------4-------------------------------------8-----8-|
|--------------------------------------------------------|
|--------------------------------------------------------|


Both Gtrs
|---0-----0---------0-----0-------------0--------------0---------|
|-----4-----4---------0-----0---------4----4---------4----4------|
|-------6-----6---------6-----6-----4--------4-----4--------4----|
|----------------------------------------------------------------|
|-4-------------4-0-------------0-2------------2-2---------------|
|----------------------------------------------------------------|


|---0-----0---------0-----0-------------0-------2-----0---------|
|-----4-----4---------0-----0---------4----4------4------4------|
|-------6-----6---------6-----6-----4--------4------4------4----|
|---------------------------------------------------------------|
|-4-------------4-0-------------0-2-----------------------------|
|---------------------------------------------------------------|


Verse
Both Gtrs
play twice
|-------0--------------0-------------0--------------0---------|
|-----4----4---------4----4--------0----0---------0----0------|
|---6--------6-----6--------6----1--------1-----3--------3----|
|-6------------6-6-------------2------------2-4---------------|
|-------------------------------------------------------------|
|-------------------------------------------------------------|


|-------0--------------0--------------0--------------0---------|
|-----4----4---------4----4---------0----0---------0----0------|
|---6--------6-----6--------6-----8--------8-----8--------6----|
|-6------------6-6------------6-9------------9-9----------7----|
|--------------------------------------------------------------|
|--------------------------------------------------------------|


Chorus
Both Gtrs
|---0-----0---------0-----0-------------0--------------0---------|
|-----4-----4---------0-----0---------4----4---------4----4------|
|-------6-----6---------6-----6-----4--------4-----4--------4----|
|----------------------------------------------------------------|
|-4-------------4-0-------------0-2------------2-2---------------|
|----------------------------------------------------------------|


|---0-----0---------0-----0-------------0-------2-----0---------|
|-----4-----4---------0-----0---------4----4------4------4------|
|-------6-----6---------6-----6-----4--------4------4------4----|
|---------------------------------------------------------------|
|-4-------------4-0-------------0-2-----------------------------|
|---------------------------------------------------------------|


Repeat Verse


Bridge
Gtr 1
|-------0--------------0-------------0--------------0--0-0-0----|
|-----0----0---------0----0--------0----0---------0----0-0-0----|
|---2--------2-----4--------4----6--------6-----8------8-8-8----|
|-4------------4-6-------------7------------7-9--------9-9-9----|
|---------------------------------------------------------------|
|---------------------------------------------------------------|


|-------0--------------0-------------0--------------0-------0---|
|-----0----0---------0----0--------0----0---------0----0----0---|
|---2--------2-----4--------4----6--------6-----8--------8--8---|
|-4------------4-6-------------7------------7-9-------------9---|
|---------------------------------------------------------------|
|---------------------------------------------------------------|


Gtr 2
|-------0--------------0--------------0-----------------0---0--0--0----|
|-----0----0---------0----0---------0----0------------0-----0--0--0----|
|---6--------6-----8--------8-----9--------9-------11------11-11-11----|
|-7------------7-9-------------11------------11-13---------13-13-13----|
|----------------------------------------------------------------------|
|----------------------------------------------------------------------|


|-------0--------------0--------------0--------0----|
|-----0----0---------0----0---------0----0-----0----|
|---6--------6-----8--------8-----9--------9--11----|
|-7------------7-9-------------11-------------13----|
|---------------------------------------------------|
|---------------------------------------------------|


Chorus
Both Gtrs
|---0-----0---------0-----0-------------0--------------0---------|
|-----4-----4---------0-----0---------4----4---------4----4------|
|-------6-----6---------6-----6-----4--------4-----4--------4----|
|----------------------------------------------------------------|
|-4-------------4-0-------------0-2------------2-2---------------|
|----------------------------------------------------------------|


|---0-----0---------0-----0-------------0-------2-----0---------|
|-----4-----4---------0-----0---------4----4------4------4------|
|-------6-----6---------6-----6-----4--------4------4------4----|
|---------------------------------------------------------------|
|-4-------------4-0-------------0-2-----------------------------|
|---------------------------------------------------------------|


|---0-----0---------0-----0-------------0--------------0---------|
|-----4-----4---------0-----0---------4----4---------4----4------|
|-------6-----6---------6-----6-----4--------4-----4--------4----|
|----------------------------------------------------------------|
|-4-------------4-0-------------0-2------------2-2---------------|
|----------------------------------------------------------------|


|---0-----0---------0-----0-------------0-------0-----0-----0------|
|-----4-----4---------0-----0---------4----4------4-----4----------|
|-------6-----6---------6-----6-----4--------4------4-----4--------|
|------------------------------------------------------------------|
|-4-------------4-0-------------0-2--------------------------------|
|------------------------------------------------------------------|

[ Tab from: http://www.guitartabs.cc/tabs/a/annihilator/sounds_good_to_me_tab.html ]
Both Gtrs
play twice, Gtr 3 Lead (to be added)
      PM           PM
|---------------------------------0--------------0---------|
|-5-5---4--2---5-5---4--2-------0----0---------0----0------|
|-2-2---2--2---2-2---2--2-----6--------6-----6--------6----|
|-2-2---2--2---2-2---2--2----------------------------------|
|-0---0--------0---0--------4------------4-4---------------|
|----------------------------------------------------------|


Both Gtrs
      PM  PM        PM  PM
|-4-4---5---4---4-4---5---4---2----2--2--2-2-2--2--2----|
|-5-5-5-5-5-5---5-5-5-5-5-5---4----4--4--4-4-4--4--4----|
|-----------------------------4----4--4--4-4-4--4--4----|
|-------------------------------------------------------|
|-------------------------------------------------------|
|-------------------------------------------------------|


     PM      PM   PM      PM   PM      PM   PM
|-4------------------------------------------------------|
|-5--5-5--5--5-5--5-5--5----2--2-2--2--2-2--2-2--2-------|
|-6--6-6--6--6-6--6-6--6--6-2--2-2--2--2-2--2-2--2-------|
|-6--6-6--6--6-6--6-6--6--6-2--2-2--2--2-2--2-2--2-------|
|-4--4-4--4--4-4--4-4--4--4-0--0-0--0--0-0--0-0--0--0----|
|--------------------------------------------------------|


Bridge
Gtr 1
|-------0--------------0-------------0--------------0--0-0-0----|
|-----0----0---------0----0--------0----0---------0----0-0-0----|
|---2--------2-----4--------4----6--------6-----8------8-8-8----|
|-4------------4-6-------------7------------7-9--------9-9-9----|
|---------------------------------------------------------------|
|---------------------------------------------------------------|


|-------0--------------0-------------0--------------0-------0---|
|-----0----0---------0----0--------0----0---------0----0----0---|
|---2--------2-----4--------4----6--------6-----8--------8--8---|
|-4------------4-6-------------7------------7-9-------------9---|
|---------------------------------------------------------------|
|---------------------------------------------------------------|


Gtr 2
|-------0--------------0--------------0-----------------0---0--0--0----|
|-----0----0---------0----0---------0----0------------0-----0--0--0----|
|---6--------6-----8--------8-----9--------9-------11------11-11-11----|
|-7------------7-9-------------11------------11-13---------13-13-13----|
|----------------------------------------------------------------------|
|----------------------------------------------------------------------|


|-------0--------------0--------------0--------0----|
|-----0----0---------0----0---------0----0-----0----|
|---6--------6-----8--------8-----9--------9--11----|
|-7------------7-9-------------11-------------13----|
|---------------------------------------------------|
|---------------------------------------------------|


Both Gtrs
|---0-----0---------0-----0-------------0--------------0---------|
|-----4-----4---------0-----0---------4----4---------4----4------|
|-------6-----6---------6-----6-----4--------4-----4--------4----|
|----------------------------------------------------------------|
|-4-------------4-0-------------0-2------------2-2---------------|
|----------------------------------------------------------------|


|---0-----0---------0-----0--------------------------|
|-----4-----4---------0-------2-2-2-----2-2-2-2-2----|
|-------6-----6---------6-----4-4-4-----4-4-4-4-4----|
|-----------------------------4-4-4-----4-4-4-4-4----|
|-4-------------4-0-----------2-2-2-----2-2-2-2-2----|
|----------------------------------------------------|


Chorus
Both Gtrs
|---0-----0---------0-----0-------------0--------------0---------|
|-----4-----4---------0-----0---------4----4---------4----4------|
|-------6-----6---------6-----6-----4--------4-----4--------4----|
|----------------------------------------------------------------|
|-4-------------4-0-------------0-2------------2-2---------------|
|----------------------------------------------------------------|


|---0-----0---------0-----0-------------0-------2-----0---------|
|-----4-----4---------0-----0---------4----4------4------4------|
|-------6-----6---------6-----6-----4--------4------4------4----|
|---------------------------------------------------------------|
|-4-------------4-0-------------0-2-----------------------------|
|---------------------------------------------------------------|


|---0-----0---------0-----0-------------0--------------0---------|
|-----4-----4---------0-----0---------4----4---------4----4------|
|-------6-----6---------6-----6-----4--------4-----4--------4----|
|----------------------------------------------------------------|
|-4-------------4-0-------------0-2------------2-2---------------|
|----------------------------------------------------------------|


|---0-----0---------0-----0-------------0-------0-----0-----0------|
|-----4-----4---------0-----0---------4----4------4-----4----------|
|-------6-----6---------6-----6-----4--------4------4-----4--------|
|------------------------------------------------------------------|
|-4-------------4-0-------------0-2--------------------------------|
|------------------------------------------------------------------|


Both Gtrs (play to fade)
|---0-----0---------0-----0-------------0--------------0---------|
|-----4-----4---------0-----0---------4----4---------4----4------|
|-------6-----6---------6-----6-----4--------4-----4--------4----|
|----------------------------------------------------------------|
|-4-------------4-0-------------0-2------------2-2---------------|
|----------------------------------------------------------------|

|---0-----0---------0-----0-------------0-------0-----0-----0------|
|-----4-----4---------0-----0---------4----4------4-----4----------|
|-------6-----6---------6-----6-----4--------4------4-----4--------|
|------------------------------------------------------------------|
|-4-------------4-0-------------0-2--------------------------------|
|------------------------------------------------------------------|


Gtr 3
|-------------------------------|
|-5-5-4-------------------------|
|--------6--4-6-----6-6--4-4----|
|-------------------------------|
|-------------------------------|
|-------------------------------|


|---------------------------------|
|-5-5-4---------------5-5--4-4----|
|--------6--4-6-----4-------------|
|---------------------------------|
|---------------------------------|
|---------------------------------|


Gtr 4
|-------------------------------|
|-9-9-7-------------------------|
|--------9--8-9-----9-9--8-8----|
|-------------------------------|
|-------------------------------|
|-------------------------------|


|---------------------------------|
|-9-9-7---------------9-9--7-7----|
|--------9--8-9-----8-------------|
|---------------------------------|
|---------------------------------|
|---------------------------------|

Gtr 3 Lead (to be added)


Tablature Legend
----------------
 h   - hammer-on
 p   - pull-off
 b   - bend
 pb  - pre-bend
 r   - bend release (if no number after the r, then release immediately)
 /\  - slide into or out of (from/to "nowhere")
 s   - legato slide
 S   - shift slide
  - natural harmonic
[n]  - artificial harmonic
n(n) - tapped harmonic
 ~   - vibrato
 tr  - trill
 T   - tap
 TP  - trem. picking
 PM  - palm muting
\n/  - tremolo bar dip; n = amount to dip
 \n  - tremolo bar down
 n/  - tremolo bar up
/n\  - tremolo bar inverted dip
 =   - hold bend; also acts as connecting device for hammers/pulls
 <>  - volume swell (louder/softer)
 x   - on rhythm slash represents muted slash
 o   - on rhythm slash represents single note slash

Misc Legend
-----------
 |  - bar
||  - double bar
||o - repeat start
o|| - repeat end
*|  - double bar (ending)
 :  - bar (freetime)
 $  - Segno
 &  - Coda
Tempo markers -  = BPM(8/16=s8/s16), where s8 = swing 8ths, s16 = swing 16ths
Comments