Annihilator - Braindance Chords & Tabs

 

Braindance Chords & Tabs

Annihilator Chords & Tabs

Version: 1 Type: Tab 0 ratings
1 star 2 stars 3 stars 4 stars 5 stars
comments

Braindance Tab

Annihilator: Braindance

RIFF 1:
                                                                              x 2
|------------------------------------------------------------------------------------------
|------------------------------------------------------------------------------------------
|-------------------------------------------------------------------------------------A----
|----------------------------------8--8------------------------------9--8------7------6^---
|----------------------------------8--8--------------------7--9--10--------9------8--------
|--0----0--0--0--0--0--0--0--0--0--6--6--0--0--0--0--0--0----------------------------------
[ Tab from: http://www.guitartabs.cc/tabs/a/annihilator/braindance_tab.html ]
|-----------------------------------------------------------------------------------------------------------------------------------------------------------------------------------
|-----------------------------------------------------------------------------------------------------------------------------------------------------------------------------------
|-----------------------------------------------------------------------------------A--A----------13--12----------------12--11------------------------------------------------------
|----------------------------------8--8------------------------------9--8-----7-----6--5-----------------11---------------------10-----------9-----8-----7-----6-----------4-----3--
|----------------------------------8--8--------------------7--9--10--------9-----8--------11--10-------------10--10--9--------------9-----8-----7-----6-----5-----------3-----2-----
|--0----0--0--0--0--0--0--0--0--0--6--6--0--0--0--0--0--0---------------------------------------------------------------------------------------------------------------------------

INTERLUDE:
                                                                                x 2
|------------------------------------------------------------------------------------------------------
|------------------------------------------------------------------------------------------------------
|------------------------------------------------------------------------------------------------------
|-----6--5--6-----6--5--6---------------------------------6--5--6-----6--5--6--------------------tr^---
|--4-----------4--------------------2--3--2^3^2--------4-----------4--------------------2--3--7--6-----
|--------------------------2--4--5---------------5--2--------------------------2--4--5-----------------

                                                                                                x 2
|-------------------------------------------------------------------------------------------------------------------------------
|-------------------------------------------------------------------------------------------------------------------------------
|-------------------------------------------------------------------------------------------------------------------9--8--7--6--
|-----------------6-----------5--6--5-----------4-----2--1-------------------6-----------5--6--5-----------4-----2--------------
|--4--4--4--7--4-----4--4--4-----------0--0--0-----0----------4--4--4--7--4-----4--4--4-----------0--0--0-----0-----------------
Comments