Annie Lennox - Waiting In Vain Chords & Tabs

 

Waiting In Vain Chords & Tabs

Annie Lennox Chords & Tabs

Version: 1 Type: Tab 0 ratings
1 star 2 stars 3 stars 4 stars 5 stars
comments

Waiting In Vain Tab

e|------------------------------------------------------4--------------------|
B|-2--------2----2-------------2--------------2--------------------2---------|
G|-----1-------------1---1----------1----1--------1-----------1---------1----|
D|---------------------------------------------------------------------------|
A|---------------------------------------------------------------------------|
E|---------------------------------------------------------------------------|

e|--1---------------------4------2----1-------------------4--4---1--1---2---4|
B|--------2---------2-----------------------4-----2--------------------------|
G|-------------1-------------------------------------------------------------|
D|---------------------------------------------------------------------------|
A|---------------------------------------------------------------------------|
E|---------------------------------------------------------------------------|
[ Tab from: http://www.guitartabs.cc/tabs/a/annie_lennox/waiting_in_vain_tab.html ]
e|--4----6----4----2--2-----1-------------------------------1----------------|
B|---------------------------------4------------2------4---------4(2)--------|
G|----------------------------------------1------------------------------1---|
D|---------------------------------------------------------------------------|
A|---------------------------------------------------------------------------|
E|---------------------------------------------------------------------------|

e|------1---------------4------2----1-----------------------1----------------|
B|--2--------2----------------------------2-----------2----------2-----------|
G|----------------1-----------------------------1----------------------------|
D|---------------------------------------------------------------------------|
A|---------------------------------------------------------------------------|
E|---------------------------------------------------------------------------|

Dedicated to Jessica Colby :) -Cindy
Comments