Anna Waronker - Perfect Ten Chords & Tabs

 

Perfect Ten Chords & Tabs

Anna Waronker Chords & Tabs

Version: 1 Type: Bass Tab 0 ratings
1 star 2 stars 3 stars 4 stars 5 stars
comments

Perfect Ten Bass Tab

Artist: Anna Waronker
Song: Perfect Ten
Album: Anna by Anna Waronker

Intro:
G------------------
D------------------
A-----3-5-3--------
E-5-5-------0-3-5--
[ Tab from: http://www.guitartabs.cc/tabs/a/anna_waronker/perfect_ten_btab.html ]
Main Riff/Verse: ( There are variations on this riff but this is
generally how it is played throughout the song)
G-------------------------------------------|------------|
D-------------------------------------------|------------|
A-----3-5-3---------3-5-3---------3-5-3-----|---7-5-3----|  
E-5-5-------5-3-5-5-------5-3-5-5-------5-3-|-5-------5--|

Pre Chorus ( Won't you love me again ?):
G---|---|---|
D---|---|---|
A---|---|---|
E-0-|-0-|-0-|

Chorus ( D then HighE) :
G----------------------
D----------------------
A-55555555-77777777---- Ranges in amount of times it's played
E----------------------

I beleive it ends on a C
Comments