Anna Ternheim - No I Dont Remember Chords & Tabs

 

No I Dont Remember Chords & Tabs

Anna Ternheim Chords & Tabs

Version: 1 Type: Tab

No I Dont Remember Tab

   
Verse = Am - F - Em

Picking Patterns:

Am
|--------------|
|--------------|
|-----2--------|
|-------2------|  x 4
|-0------------|
|--------------|

F
|--------------|
|--------------|
|-----2--------|
|-------3------|  x 2
|-3------------|
|--------------|

Em
|--------------|
|--------------|
|-----0--------|
|-------2------| x 2  (x 4 leading into chorus)
|--------------|
|-0------------|

The chorus looks like this:
[ Tab from: http://www.guitartabs.cc/tabs/a/anna_ternheim/no_i_dont_remember_tab.html ]
F    Am        G       F
 Remind me of how, I used to feel
   Am         G      F            Am
Remind me of who, I used to be back when
  Em            F             Am
Nothing could come between us then
 Em               F            
That thought would never leave us

Picking patterns:

G
|--------------|
|--------------|
|-----0--------|
|-------0------|
|--------------|
|-3------------|

Sometimes the F in the chorus is picked like this:

F
|--------------|
|--------------|
|-----2--------|
|-------3------|
|--------------|
|-1------------|


Questions or comments? dodger10@hotmail.com

Good luck