Animus - Free The Killers Chords & Tabs

 

Free The Killers Chords & Tabs

Animus Chords & Tabs

Version: 1 Type: Tab 0 ratings
1 star 2 stars 3 stars 4 stars 5 stars
comments

Free The Killers Tab

   
This is a great song. If you want more information on Animus, hit www.animus-metal.com

Play with Heavy Distortion

Standard Tuning
[ Tab from: http://www.guitartabs.cc/tabs/a/animus/free_the_killers_tab.html ]
E|---------------------- --------------------
X|---------------------- --------------------
X|---------------------- --------------------
X|-2-444-------------2-X 2-4-4-4-------------
X|-2-444-------------2-X 2-4-4-4-------------
e|-0-222-3-6-6-3-6-3-0-X 0-2-2-2-3-6-3-0-----

That was the main riff
Here is the rest

E|---------------------------|
X|---------------------------|
X|---------------------------|
X|-4-4-4-4-4-4---------------|
X|-4-4-4-4-4-4---------------|
e|-2-2-2-2-2-2-7/8/7-6-4-4/10|
     |-PM-----|

That's about all I know. Even if you play this as fast as you can, you're probably missing something. This song (like all the other ones) is really complex
Comments