Animals - Its My Life Chords & Tabs

 

Its My Life Chords & Tabs

Animals Chords & Tabs

Version: 3 Type: Tab 0 ratings
1 star 2 stars 3 stars 4 stars 5 stars
comments

Its My Life Tab

e|---------------------------------------------------------------------------|
B|---------------------------------------------------------------------------|
G|---------------------------------------------------------------------------|
D|---------------------------------------------------------------------------|
A|----0--2--0--2--0--2--0----------------------------------------------------|
E|-------------------------2--0--2-------------------------------------------|
[ Tab from: http://www.guitartabs.cc/tabs/a/animals/its_my_life_tab_ver_3.html ]
e|---------------------------------------------------------------------------|
B|---------------------------------------------------------------------------|
G|---------------------------------------------------------------------------|
D|---------------------------------------------------------------------------|
A|----------0--2--3--3--2--0-------------------------------------------------|
E|----2--2--------------------2--0--2----------------------------------------|

e|----0--2--0--2--0--2--0----------------------------------------------------|
B|------------------------2--0--2--------------------------------------------|
G|---------------------------------------------------------------------------|
D|---------------------------------------------------------------------------|
A|---------------------------------------------------------------------------|
E|---------------------------------------------------------------------------|

These are the 3 main parts. My dad figured this out its more accurate than the others on this site. Enjoy.
Comments