Animals - Its My Life Chords & Tabs

 

Its My Life Chords & Tabs

Animals Chords & Tabs

Version: 1 Type: Tab 0 ratings
1 star 2 stars 3 stars 4 stars 5 stars
comments

Its My Life Tab

This is the intro:

-------------------------
-------------------------
-------------------------
-0-2--0-2--0-2-0---------
----------------2-0-2----
-------------------------

Play twice

Verse 1: 
[ Tab from: http://www.guitartabs.cc/tabs/a/animals/its_my_life_tab.html ]
--------------------------
--------------------------
----0--1--2--2--1--0------
-2--------------------2---
--------------------------
--------------------------

Repeat

Listen to song for timing

That's all I know, I've only been playing for
a month and this is my first tab

Bye

Nicholas Shubitz  

Comments