Animals - House Of The Rising Sun Chords & Tabs

 

House Of The Rising Sun Chords & Tabs

Animals Chords & Tabs

Version: 4 Type: Tab 0 ratings
1 star 2 stars 3 stars 4 stars 5 stars
comments

House Of The Rising Sun Tab

   
-------------------------------------------------------------------------------
		House Of The Rising Sun -- animals	     
-------------------------------------------------------------------------------
Email: kcflaw@hotmail.com


    This song is great for practice on fingerpicking technique  


   Am                    C                 D                 F
e|-------------0-------|---------0-------|---------2------|--------1-------|
B|-----------1---1-----|-------1---1-----|-------3---3----|------1---1-----|
G|---------2-------2---|-----0-------0---|-----2-------2--|----2-------2---|
D|---------------------|-----------------|---0------------|--3-------------|
A|------0--------------|--3--------------|----------------|----------------|
E|---------------------|-----------------|----------------|----------------|
   there is      a      house      in       new      or  -  leans     they
[ Tab from: http://www.guitartabs.cc/tabs/a/animals/house_of_the_rising_sun_tab_ver_4.html ]
 
  Am                  C                 E                  E
e|---------0-------|---------0-------|----------0-------|--------0---------|
B|-------1---1-----|-------1---1-----|--------0---0-----|------0---0-------|
G|-----2-------2---|-----0-------0---|------1-------1---|----1-------1-----|
D|-----------------|-----------------|------------------|------------------|
A|--0--------------|--3--------------|------------------|--2---------------|
E|-----------------|-----------------|---0--------------|------------------|
   call      the      ri  -     sin'     sun                        and it's



   Am                    C                 D                 F
e|-------------0-------|---------0-------|---------2------|--------1-------|
B|-----------1---1-----|-------1---1-----|-------3---3----|------1---1-----|
G|---------2-------2---|-----0-------0---|-----2-------2--|----2-------2---|
D|---------------------|-----------------|---0------------|--3-------------|
A|------0--------------|--3--------------|----------------|----------------|
E|---------------------|-----------------|----------------|----------------|
       been       the    ruin       of      many     poor    boys     and      


   Am                  E                   Am                E
e|----------0-------|----------0-------|----------0-------|----------0-----|
B|--------1---1-----|--------0---0-----|--------1---1-----|--------0---0---|
G|------2-------2---|------1-------1---|------2-------2---|------1-------1-|
D|------------------|------------------|------------------|----------------|
A|---0--------------|------------------|---0--------------|---2------------|
E|------------------|---0--------------|------------------|----------------|
      me       I       know        I'm      one    



       any comments? questions? insults? corrections?

    ok, hope i didnt miss anything!
Comments