Animals - Baby Let Me Take You Home Chords & Tabs

 

Baby Let Me Take You Home Chords & Tabs

Animals Chords & Tabs

Version: 1 Type: Tab 0 ratings
1 star 2 stars 3 stars 4 stars 5 stars
comments

Baby Let Me Take You Home Tab

-------------------------------------------------------------------------------
			     BABY LET ME TAKE YOU HOME - The Animals
-------------------------------------------------------------------------------

By:

e|---------------------------------------------------------------------------|
B|---------------------------------------------------------------------------|
G|------------------------------2--------------------------------------------|
D|---------------2---------2-0-4-0-0-2---------------------------------------|
A|------------0-4-0-----0-4-------4---4-0-2-0--------------------------------|
E|-0-0-2-0-4-0-----0-2-0-----------------------------------------------------|

Baby let me take you home

Baby let me take you home

I'll love you all my life

You can bet I'll treat you right

If just let you take me home


Baby can I dance with you (Ahhh)

Baby can I dance with you (Ahhh)

I'll do anything in this kind of world
[ Tab from: http://www.guitartabs.cc/tabs/a/animals/baby_let_me_take_you_home_tab.html ]
If you just let me dance with you


Baby let me take you home (Ahhh)

Baby let me take you home (Ahhh)

I'll love you all my life

You can bet I'll treat you right

If you just let me take you home

(Bridge)

When I saw you baby, I couldn't ignore you.  When I

Wanted you for my girl



When you said "Yeah!"

I just couldn't care about anyone

Else in this world alone

You smile at me, baby

And I could see, my life planned out ahead

You took my hand

And it felt so good

And this is what you said!


"Baby won't you be my man (Ahhh)"

"Baby won't you be my man (Ahhh)"

"Yes I'll be your man"

"And I'll do the best I can"

"I wanna be your man"


Oh, comin' comin' baby (comin' baby)

Comin' on baby (comin' baby) x2

Comin' comin' baby (comin' baby)

Make me feel alright (comin' baby) x2

So good (comin' baby) x2

It's alright (comin' baby) x6 


===============================================================================
Comments