Animal Alpha - Bundys Chords & Tabs

 

Bundys Chords & Tabs

Animal Alpha Chords & Tabs

Version: 1 Type: Bass Tab

Bundys Bass Tab

http://www.animalalpha.com/        --> OFFICIAL WEBSITE OF ANIMAL ALPHA


Well that’s my first tab. T = Thumb Slap, and listen to the song to be with the rhythm.
play it with a .033” pick but you can finger it too… And don’t forget to slap the intro…
send me you’re corrections at trident6669@hotmail.com, and don’t forget to let comments 
to do a guitar tab for this song please) I also suggest you to play it with a bass
pedal, but only in the places where it is not say (without any distortion or guitar)and 
in the slap…

ORDER

-Intro x11
-Riff x2
-Pause
-Pre-Chorus x1
-Riff x2
-Riff x2 	(without any distortion or guitar)
-Chorus x3
-Chorus end x1
-Chorus x3  	(without any distortion or guitar)
-Chorus end x1 	(without any distortion or guitar)
-Chorus x3
-Chorus end x1
-Chorus x3
-Chorus end x1
-Chorus x3
-Chorus end x1
-Chorus x3
-Chorus end x1
-Intro x 4
-Riff x 2
[ Tab from: http://www.guitartabs.cc/tabs/a/animal_alpha/bundys_btab.html ]
INTRO
|----------------------------------|
|----------------------------------|
|----------------------------------|
|-2-2-0-0-2-0-0-2-0-2-0-0-2-0-0-0--|
  T T T T T T T T T T T T T T T T

RIFF
|----------------------------------|
|----------------------------------|
|----------------------------------|
|--0---0-0-55-33--0---0-0-33-55----|

|----------------------------------|
|----------------------------------|
|----------------------------------|
|--0---0-0-55-33--0---0-0-30405----|

PAUSE (guitar & drums)

PRE-RIFF
|-3--|   (I've fallen down, my nose bleeding badly)
|-3--|    LET RING
|----|
|----|

CHORUS
|----------------------------------------------|
|----------------------------------------------|
|----------------------------------------------|
|--/3-3-3-3-3-3-3-3-x-0-0-0-0-0-0-0-0-x--------|


CHORUS END
|----------------------------------------------|
|----------------------------------------------|
|----------------------------------------------|
|--2-2-2-2-4-4-4-4-6-6-6-6-6-6-6-6-------------|