Ani Difranco - Virtue Chords & Tabs

 

Virtue Chords & Tabs

Ani Difranco Chords & Tabs

Version: 1 Type: Bass Tab 0 ratings
1 star 2 stars 3 stars 4 stars 5 stars
comments

Virtue Bass Tab

Virtue
by: Ani DiFranco
CD: Upupupupupup
transcribed by nick

Intro/Chorus:
G------------------------------6-4---------
D----------------------------------5-------
A--7---2--3---3--5---2-5---4-7-------7-6---
D------------------------------------------

Fill (before every Verse):
G------12-------11-------10---
D----12-------11-------10-----
A--10-------9--------8--------
D-----------------------------
[ Tab from: http://www.guitartabs.cc/tabs/a/ani_difranco/virtue_btab.html ]
Verse:
G-------------------------
D-------------------------
A------2--3--------2--3---
D--2-----------0----------

Bridge:
G----------------------------
D----------------------------
A------------------------2---
D--2---3---5-----2---3-------

Outro:
G------------------------------
D------------------------------
A--7-6-7---5-----7-6-7---------
D----------0-------------5-5---

if you have any ?'s/comments/corrections, 
email me at funkifunki@aol.com
Comments