Ani Difranco - Two Little Girls Chords & Tabs

 

Two Little Girls Chords & Tabs

Ani Difranco Chords & Tabs

Version: 1 Type: Tab 0 ratings
1 star 2 stars 3 stars 4 stars 5 stars
comments

Two Little Girls Tab

Song: Two Little Girls
Artist: Ani DiFranco
Album: Little Plastic Castle

*Tuning: DACGAD*


(low to high) Intro:

D--------------------0---------0---------0---------0---------0--------------
A---------------------------------------------------------------------------
G---------0-------0----------0---------0---------0----------0---------------
C--4--5-------------------4---------5------------------------------5--------
A---------------1-------------------------------3----------5-------------5--
D---------------------------------------------------------------------------


D---------------------0---- -----0--------0----------0----------------------
A---------------------------------------------------------------------------
G---------0--------0-----------0--------0----------0------------------------
C--4--5--------------------4----------5-------------------------------------
A-----------------1-------------------------------0--------0--------------0-
D------------------------------------------------------------------0------0-

[ Tab from: http://www.guitartabs.cc/tabs/a/ani_difranco/two_little_girls_tab.html ]
Verses:

D-------------0---------------0-
A-------------0---------------0-
G-------------2---------------2-
C---------0(h)2-----------2(p)0-
A-------------------------------
D-------------------------------  Repeat...  then:


D-----------3-------------5
A-----------3-------------5
G-----------5-------------7
C-----------5-------------7
A-----------3-------------5
D-----------3-------------5   Then go back to the above figure

(These last 2 chords are my best guess.  I figured this song out using a
bootleg, and I can't really telling what's going on with the high strings
b/c of poor sound quality)

"Here Comes Little Naked Me" part: 
(Complete guess-work, b/c i couldn't hear it well)

D-----------3----------5----------7-----------8
A-----------3----------5----------7-----------8
G-----------5----------7----------7-----------8
C-----------5----------7----------9----------10
A-----------3----------5----------7-----------8
D-----------3----------5----------7-----------8


*Transcribed by: M.
Hope this steers you in the right direction...
Comments