Ani Difranco - On Every Corner Chords & Tabs

 

On Every Corner Chords & Tabs

Ani Difranco Chords & Tabs

Version: 2 Type: Tab 0 ratings
1 star 2 stars 3 stars 4 stars 5 stars
comments

On Every Corner Tab

   
-----------------------------------------------------------------------------
			     On Every Corner - Ani Difranco         
-----------------------------------------------------------------------------
Tabbed by: Jessy Wilson
Email: Sombs999@aol.com
    OR jlwilson@mail.plymouth.edu

Tuning: Standard..drop the high e to d

This song is so powerful, this is just my basic idea that you can play of off. I've seen
the other tabs of this song and I just like playing it this way. its more of fun to me.
and easier because i dont have to down tune my whole guitar....well.
Enjoy!

 h  hammer
 p  pluck
 X slap palm of hang across guitar strings to mute notes
 * let ring
-----------------------------------------------------------------------------


Intro( to song and verses)
d|------0--------0--|-----0------------|------------------0*|---------------|
B|------3---3-------|-----6--6-----6---|----5---5---5-----5*|---------------|
G|------2------2----|-----5-----5------|----4-----4-------4*|---------------|
D|------0-----------|-----0------------|----0-------------0*|-------0-------|
A|------------------|------------------|--------------------|0--0h5---------|
E|--3---------------|--6---------------|-5------------------|-----------6*--|

when you end on that 6 note, let it ring and slide your finger down to the 3 fret to
restart the riff over ( this will make it sound more like the song)
At one point she hits the low E on the 6 again real quick before switching to the 5-045-
part, im sure you will figure it out...

Verses:
d|------X-------X-------X---------------|-----------------------------------|
B|----3pX-----6pX-----5pX------6*p------|-----------------------------------|
G|----2pX-----5pX-----4pX------5*p------|---then-she-plays-the-same---------|
D|------X-------X-------X---------repeat|---thing-harder--------------------|
A|------X-------X-------X---------------|---afer-that-she-plays-the---------|
E|-3----X---6---X---5---X---6---*-------|---------next-set-like-below-------|
[ Tab from: http://www.guitartabs.cc/tabs/a/ani_difranco/on_every_corner_tab_ver_2.html ]
d|-----X------X----------------|--------------------------------------------|
B|----3pX-----6pX----5*p---4*p-|--------------------------------------------|
G|----2pX-----5pX----4*p---3*p-|-----this-leads-right-back-into-------------|
D|-----X------X----------------|-----the-intro-riff-------------------------|
A|-----X------X----------------|--------------------------------------------|
E|-3---X---6--X--5----*--4--*--|--------------------------------------------|

NOTE: all of the higher sets of notes in the bridge and verses are plucked.

Then there is the bridge where it gets faster

e|--------------|----------------|-------------------|----------------------|
B|---3-3--------|----6-6---------|-----5-5-----------|-----6--6*------------|
G|---2-2--------|----5-5---------|-----4-4-----------|-----5--5*---repeat---|
D|-------0---0--|---------0----0-|----------0-----0--|-------------a-lot----|
A|---------0----|------------0---|-------------0-----|----------------------|
E|-3------------|--6-------------|---5---------------|--6-------------------|

It changes half way through because,
She kicks off the singing in the bridge like this

e|-------------------|------------------------------------------------------|
B|-----5---55---666--|--then-play-the-above-riff-again----------------------|
G|-----4---44---555--|----until-the-real---finsish--------------------------|
D|-------------------|---of-the-bridge--------------------------------------|
A|-------------------|---as-shown-below-------------------------------------|
E|--5--5---55---666--|------------------------------------------------------|

  "so what if god is testing us, what if that's true. what are you....."
e|--------------------------------------------------------------------------|
B|---5-----------------------------6----------------------------------------|
G|---4-----------------------------5----------------------------------------|
D|---0------0------0---------------0---0--------0*--------------------------|
A|--------------0---------------------------0-------------------------------|
E|-5*----------------------------6*-----------------------------------------|

This goes back to the very beginging and from there i think you can take it.
Enjoy this song and good luck.
Any questions for comments feel free to e-mail me.

Thanks for checking my tab out.
~
Jessy
Comments