Ani Difranco - Ok Chords & Tabs

 

Ok Chords & Tabs

Ani Difranco Chords & Tabs

Version: 1 Type: Tab 0 ratings
1 star 2 stars 3 stars 4 stars 5 stars
comments

Ok Tab

   
-----------------------------------------------------------------------------                              
o.k.-ani difranco
-----------------------------------------------------------------------------
tabbed by: diane

tuning: standard

intro:2X
e|--------------------------------------------------------------------------|
B|--------------------------------------------------------------------------|
G|-----0----------------0-------------------0--------------------0----------|
D|---------2------------------2-------------------2-------------------2-----|
A|--------------------------------------0--------------0-----0------------0-|
E|--3----------3---3----------------3---------------------------------------|

e|--------------------------------------------------------------------------|
B|--------------------------------------------------------------------------|
G|--------------------------------------------------------------------------|
D|-----0-----------------0-----------------0------------------0-------------|
A|----------2-----------------2------------------2-----------------2----0---|
E|--0------------0---0-------------0---0--------------0---0-----------------|


[ Tab from: http://www.guitartabs.cc/tabs/a/ani_difranco/ok_tab.html ]
verse 1:
C
if you ask me 
D            EM
i'll say yes please
       D
to you today
         C
so don't ask me
             D
cuz i'm weak that way
     EM           D
just don't ask me o.k.

chorus:2x
       C
i'm so glad we got that
G     A      EM
straightened away 


verse 2:
       C
if you see me 
     D
walk by
                EM
you better just let me
     D
walk by
           C
you better not
                D
bat your pretty eyes
           EM
you better not
               D
stop me to say hi

chorus:2X 
  C
i got a sweet tooth today
   G          A            EM
so you better not cut that pie

solo: A   C    EM    G
      A   C    EM    G
      A   C    EM    G
      A   C    D     EM

intro: 2x

verse:
C
if you ask me
     D
i'll say
    EM
yes please
       D
to you today
         C
so don't ask me
                  D
cuz i'm weak that way
           EM
just don't ask me
D
o.k. (end on D)


vwala, there it is! when you play the EM chord in the chorus you can pull off the chord
and hammer it back on, it makes it sound cooler, but whatever, that's just my inner-nerd
talking.
Comments