Ani Difranco - Not A Pretty Girl Chords & Tabs

 

Not A Pretty Girl Chords & Tabs

Ani Difranco Chords & Tabs

Version: 1 Type: Tab 0 ratings
1 star 2 stars 3 stars 4 stars 5 stars
comments

Not A Pretty Girl Tab

   
-------------------------------------------------------------------------------
		    Not A Pretty Girl - Ani DiFranco
-------------------------------------------------------------------------------
Tabbed by: KinkySlick
Email: annapanda016@hotmail.com

Tuning: D B G B B E (Capo II)

Chords: (Em7) (Gsus2) (Csus2) (Dsus2) (Asus24) (With Capo)
	 F#m7  Asus2   Dsus2   Esus2   Bsus24   Without Capo

e|------------------0--0-------------------------0---0-----------0-----------|
B|---0--------------0------0---------------------3-------3-------8-----------|
B|---0-----0--------5---------0--0---2----2------2-----------2/--7-----------|
G|---5--------------5----------------3-----------3-----------3/--8-----------|
B|---5--------------0----------------X-----------------------X---X-----------|
D|---0---------0----0----------------3-------3---------------3/--8-----------|

e|---------0--0-------------------------0---0-----0--------------------------|
B|--8------8------8---------------------10-----------------------------------|
B|---------7---------7/9---9-----9------9------9------9----------------------|
G|---------8---------8/10--10-----------10-----------------------------------|
B|-------------------X-----X-------------------------------------------------|
D|-----8-------------8/10--10-------10---------------------------------------|

e|-------------------0----0-----------0----0------------0---------0----------|
B|-------------------10---------10----10---------10-----5----5----5----------|
B|-9--------9--------9----------------9-----------------4---------4----------|
G|-10----------------10---------------10-------------10\5---------5--------5-|
B|-X-----------------X----------------X--------------X--X--------------------|
D|-10-----------10---10---------------10-------------10\5-------5-------5----|

e|-0---------------0-------------0----0-------0-----0------------------------|
B|-5-----5------5------5---------8------------8------------------------------|
B|-4-----------------------------7------------7------------------------------|
G|-5----------5------------------8------------8------------------------------|
B|-X-----------------------------X-------------------------------------------|
D|-5--------5--------------5/0---8--------8--------------8-------------------|

e|-0----0----0--0--0--0--0--0--0--0------------------------------------------|
B|-8----8----8--8--8--8--8--8--8--8------------------------------------------|
B|-7----7----7--7--7--7--7--7--7--7------------------------------------------|
G|-8----8----8--8--8--8--8--8--8--8------------------------------------------|
B|-X----X----X--X--X--X--X--X--X--X------------------------------------------|
D|-8----8----8--8--8--8--8--8--8--8------------------------------------------|
[ Tab from: http://www.guitartabs.cc/tabs/a/ani_difranco/not_a_pretty_girl_tab.html ]
e|---------------------------------------------------------------------------|
B|---------------------------------------------------------------------------|
B|---------------------------------------------------------------------------|
G|----0----0------3------------3---3--------3----X-----8-------8---10---10---|
B|----0----0------3------------3---3--------3----X-----8-------8---10---10---|
D|----0----0------3------3-----3---3--------3----X-----8-------8---10---10---|

e|---------------------------------------------------------------------------|
B|---------------------------------------------------------------------------|
B|---------------------------------------------------------------------------|
G|---10------10-----10----10----0-----0------0---------3---3------3---X------|
B|---10------10-----10----10----0-----0------0---------3---3------3---X------|
D|---10------10-----10----10----0-----0------3------3--3---3------3---X------|

e|---------------------------------------------------------------------------|
B|---------------------------------------------------------------------------|
B|---------------------------------------------------------------------------|
G|-8------8-------10--10---10-------10---10----10--10----10--10--10----------|
B|-8------8-------10--10---10-------10---10----10--10----10--10--10----------|
D|-8------8-------10--10---10-------10---10----10--10----10--10--10----------|

e|---------------------------------------------------------------------------|
B|---------------------------------------------------------------------------|
B|---------------------------------------------------------------------------|
G|----------------------------------------------------0----------------------|
B|----------------------------5-----------------------5----------------------|
D|---------------------------------------------------------------------------|

e|---------------------------------------------------------------------------|
B|---------------------------------------------------------------------------|
B|---------------------------------------------------------------------------|
G|-10----------10-----(10)\5-------(0)----------------------------------(5)--|
B|-10----------10-----(10)\5-------(5)----------(5)-----0----(0)--------(5)--|
D|-10----------10-----(10)\5--------------------------------------------(5)--|

| /  slide up
| \  slide down
| h  hammer-on
| p  pull-off
| ~  vibrato
| +  harmonic
| x  Mute note

Lyrics:

I am not a pretty girl
that is not what I do
I ain't no damsel in distress
and I don't need to be rescued
so put me down punk
wouldn't you prefer a maiden fair
isn't there a kitten 
stuck up a tree somewhere

I am not an angry girl
but it seems like 
I've got everyone fooled
every time I say something 
they find hard to hear
they chalk it up to my anger
never to their own fear

imagine you're a girl 
just trying to finally come clean
knowing full well they'd prefer
you were dirty
and smiling
I'm sorry
but I am not a maiden fair
and I am not a kitten
stuck up a tree somewhere

generally my generation
wouldn't be caught dead
working for the man
and generally I agree with them
trouble it you got to have yourself
an alternate plan
I have earned my disillusionment
I have been working all of my life
I am a patriot
I have been fighting the good fight
and what if there are 
no damsels in distress

what if I knew that 
and I called your bluff
don't you think every kitten
figures out how to get down
whether or not you ever show up

I am not a pretty girl
I don't really want to be a pretty girl
I want to be more than a pretty girl

===============================================================================
Comments