Ani Difranco - Napoleon Chords & Tabs

 

Napoleon Chords & Tabs

Ani Difranco Chords & Tabs

Version: 1 Type: Bass Tab 0 ratings
1 star 2 stars 3 stars 4 stars 5 stars
comments

Napoleon Bass Tab

Ani Difranco - Napoleon
Tabbed By: Naman
EMail: lemon@1st.net
From Album: Living in Clip
Notes:
     These are the basic notes that she hits. You can feel free to add
more though, as long as you stay with the rhthym. Listen to the CD
to find that rhtythm. VERSE:

g |-----------------------------------------------------------------|
d |-----------------------------------------------------------------|
a |-----------------------------0--0--3--3--3--r--3-----------------|
e |--1--1--1--r--1--1--r--1--1-----------------------3--3--3--3--r--|
[ Tab from: http://www.guitartabs.cc/tabs/a/ani_difranco/napoleon_btab.html ]
g |-----------------------------------------------------------------|
d |-----------------------------------------------------------------|
a |-----------------------------------------------------------------|
e |--1--1--1--1--1--1--1--1--1--1--1--1--1--1--1--1--1--------------|

BRIDGE:

g |-----------------------------------------------------------------|
d |-----------------------------------------------------------------|
a |-----------------------------------------------------------------|
e |--3--3----1--1----3--3----1--1-----------------------------------|

     "HOPE THAT.... HAVING FUN"

CHORUS:	 
	 
g |------------------------------|
d |------------------------------|
a |------------------------------|
e |--5----5----3----3----1----1--|

You can (and should) do some heavy improvisation with adding extra
notes, octaves, and rundowns in here. Listen to what Sarah does
live to get some ideas.--------------------------------------------------------------------------------
Transcribed by: Naman
Email him at: lemon@1st.net
Comments