Ani Difranco - Lost Woman Song Chords & Tabs

 

Lost Woman Song Chords & Tabs

Ani Difranco Chords & Tabs

Version: 1 Type: Tab 0 ratings
1 star 2 stars 3 stars 4 stars 5 stars
comments

Lost Woman Song Tab

   
-----------------------------------------------------------------------------
			  Lost Woman Song - Ani  Difranco
-----------------------------------------------------------------------------
Tabbed by: Jessy Wilson
Email:jlwilson@mail.plymouth.edu
   OR sombs999@aol.com

Tuning: EADGBd
Drop your high e down to a d

Tempo is real upbeat so you have to keep up for it to sound right...
she lets a lot of the notes ring *important*
Just listen to the song while playing and you will get it right away.

h = hammer
/ = slide up
* = let note ring
-----------------------------------------------------------------------------

These are the basic patterns through out the song..listen to hear how many times she
plays each REMEMBER keep up. trust me it will sound so good if you do.
[ Tab from: http://www.guitartabs.cc/tabs/a/ani_difranco/lost_woman_song_tab.html ]
d|--------0----------------0--------0----|
B|----------0----------------------------|
G|-----1-------1--------1--------1-------| 
D|------------------0---------0----------| 
A|---------------------------------------|
E|--0------------------------------------|

d|---------------------------------------|
B|----------2-h-3-/-5--------------------|
G|--------------0---0*-------------------| 
D|----------2----------------------------|
A|----------0---0*--0*-------------------|
E|---------------------------------------|


d|-----------------------------------------------------------|
B|---------5------------5-------------5-------------5--------|
G|------4----4-------4---4----------4---4--------4----4------|
D|-------------0------------0-------------0-------------0----|
A|---4-----------4---------------3------------3--------------|
E|-----------------------------------------------------------|

Great song. Great lyrics.
Play and have fun

Any comments for questions. Just e-mail me.
Good luck
Comments