Ani Difranco - Fuel Chords & Tabs

 

Fuel Chords & Tabs

Ani Difranco Chords & Tabs

Version: 1 Type: Bass Tab 0 ratings
1 star 2 stars 3 stars 4 stars 5 stars
comments

Fuel Bass Tab

Fuel

from Little Plastic Castle
by Ani DiFranco 

Tuning: DADG (drop-D tuning)


G---------------------9-7--6h7-6--9---7---6h7-6-------------
D------------4-7--7s9----------------7-------------7--------
A---5---5h7-----------------------------------------7--5--5-
D-----------------------------------------------------------

G----------------------------------7--h9----7--9h11-----6h7-
D-7-7--5s7--------------9-7----9-7-------7-----------7------
A-----------7--5--5s7---------------------------------------
D-----------------------------------------------------------
[ Tab from: http://www.guitartabs.cc/tabs/a/ani_difranco/fuel_btab.html ]
G-6h7-6-----------------------------------------------------
D--------7------------4--7--9-----------------------7h9--7--
A----------7---5--5h7---------7----5s7------4-5--5---------7
D------------7------------------7------7-7------------------

G---6h7--6-----
D--------------
A-5------------
D--------------

the bass quits at "people used to make records..." and the riff below
comes back after "you tell me whats real" and stays that way for the
rest of the song

G-------------------------
D-------------------------
A-------------0---0-0-0---
D-0---0-0-0---------------

transcribed by Lauren 
Comments