Ani Difranco - As Is Chords & Tabs

 

As Is Chords & Tabs

Ani Difranco Chords & Tabs

Version: 1 Type: Tab 0 ratings
1 star 2 stars 3 stars 4 stars 5 stars
comments

As Is Tab

Artist:Ani Difranco
Song:Asis
By:Lennon UST LYB
[ Tab from: http://www.guitartabs.cc/tabs/a/ani_difranco/as_is_tab.html ]
INTRO & VERSE & CHORUS:
e|----8---------10-----------12-----------08--------|
B|----8---------12-----------13-----------10--------|  (repeat ? times)
G|--9----9-9s12-----12-12s14-----14-14s10-----10-10s|
D|--------------------------------------------------|
A|--------------------------------------------------|
E|--------------------------------------------------|

PRE-CHORUS:
e|-----12----------8------|
B|-----13----------8------|  (repeat ? times)
G|--14-----14-14s9----9-9s|
D|------------------------|
A|------------------------|
E|------------------------|
Comments