Ani Difranco - 32 Flavors Chords & Tabs

 

32 Flavors Chords & Tabs

Ani Difranco Chords & Tabs

Version: 1 Type: Tab 0 ratings
1 star 2 stars 3 stars 4 stars 5 stars
comments

32 Flavors Tab

32 Flavors
from Not A Pretty Girl
by Ani Difranco
Tuning: Standard


			Capo: 3rd fret

[ Tab from: http://www.guitartabs.cc/tabs/a/ani_difranco/32_flavors_tab.html ]
G |--------------------------------3-----0-------0--------|
D |--1---3---0---3---0---3-0---3-----3---1---3-------3-0--|
A#|--0-------0-----------------0---------0----------------|
F |--2-------0-----------------0---------2----------------|
C |----------2-----------------2--------------------------|
G |-------------------------------------------------------|


G |--0-------------0---------|
D |------3-3-----------3-3---|
A#|--------------------------|
F |--0-------------0---------|
C |--------3-------------3---|
G |--------------------------|

Tabbed by: Simon Says (phee@dial.pipex.com)
Comments