Angus And Julia Stone - Beast Chords & Tabs

 

Beast Chords & Tabs

Angus And Julia Stone Chords & Tabs

Version: 1 Type: Tab 0 ratings
1 star 2 stars 3 stars 4 stars 5 stars
comments

Beast Tab

   
-- THE BEAST by Angus & Julia Stone -- 
Tabbed by scurt

This is from their performance on Triple J which can be seen 
here: http://www.youtube.com/watch?v=4Ap5qvVhchY. Not too sure if 
this is right, but feel free to add any comments or corrections. 

Standard tuning EADGBe. Capo 1st fret.
Chords ARE relative to capo, solo tab is NOT relative to capo.

Bm =       x-2-4-4-3-2
A =        x-0-2-2-2-0
Em =       0-2-2-0-0-0
G#maj7+5 = 0-10-9-11-0-0 
C7 =       0-12-9-11-0-0

[INTRO]
(Bm)(A)       (Em)
Pack up your things
     (Bm) (A)     (Em)
Your work here is done
  (Bm)  (A)    (Em)
A slave to the beast
  (Bm)(A)      (Em)
No mer-cy with time
  (Bm)(A)      (Em)
No mer-cy with time

[VERSE]
     (Bm)     (A)       (Em)
They brand you with the fire
    (Bm)      (A)    (Em)
And push you into the sun
              (Bm)  (A)     (Em)
They want the free land to expire
           (Bm) (A)       (Em)
They want every-one to be numb

             (Bm)    (A)  (Em)
The worlds drinking from a cup
    (Bm)     (A)     (Em)
That no one wants to share
(Bm)  (A)      (Em)
Words from the king
    (Bm)    (A)      (Em)  (slide to G#maj7+5) (C7)
That no one wants to hear
[ Tab from: http://www.guitartabs.cc/tabs/a/angus_and_julia_stone/beast_tab.html ]
[CHORUS]
(Bm)
Donít be running late
            (Em)  
Are you on time to-day
(Bm)
Donít be running late
            (Em)   (A)(Em)
Are you on time to-day
(Bm)
Donít be running late
            (Em)   
Are you on time to-day
(Bm)
Donít be running late
            (Em)   (A)(Em)
Are you on time to-day

[VERSE]
(Bm)         (A)        (Em)
Retrench me because of machines
(Bm)           (A)     (Em)
Kids trading roses for guns
(Bm)         (A)       (Em)
Track marks under the sleeve
  (Bm)      (A)       (Em)
I canít talk I need to run
(Bm)    (A)           (Em)
Loves thrown away the ring
(Bm)        (A)    (Em)
Not knowing what to say
(Bm)  (A)       (Em)
Momma wonít you sing
           (Bm)(A)      (Em)  (slide to G#maj7+5) (C7)
Itís like a cut by the blade

[Repeat CHORUS]

[SOLO]
Acoustic guitar with distortion and slight palm muting at
the beginning of fourth measure. 
e|-----------------------------------|----------------------------|
B|-----------------------------------|----------------------------|
G|---12h13h15-13-12h13-10--8--12--8--|--12h13h15-13-12h13-10--8\--|
D|-----------------------------------|----------------------------|
A|-----------------------------------|----------------------------|
E|-----------------------------------|----------------------------|

e|-----------------------|------------------------|
B|-----------------------|------------------------|
G|----------3-5--3-7--3~-|----------3-5b-3-7--3~--|
D|------3-6--------------|------3-6---------------|
A|--3-6------------------|--3-6-------------------|
E|-----------------------|------------------------|
                              
e|---------------------------------------------|
B|---------------------------------------------|
G|--10--10-10b-8---10-10-10-10b-8-\7-7\5-5--7--|
D|---------------------------------------------|
A|---------------------------------------------|
E|---------------------------------------------|

[Repeat CHORUS]
Comments