Angus And Julia Stone - Babylon Chords & Tabs

 

Babylon Chords & Tabs

Angus And Julia Stone Chords & Tabs

Version: 5 Type: Tab 0 ratings
1 star 2 stars 3 stars 4 stars 5 stars
comments

Babylon Tab

   
BABYLON by Angus & Julia Stone
Tabbed by scurt

Other tabs for this song are written in
standard tuning, but I think Angus plays this
in Drop D (DADGBe). Feel free to add any comments/corrections.  

[INTRO/VERSES]
e----------------------------|---------------------------|
B----------------------------|---------------------------|
G------0---2-----0-----------|-----0---2-----0-----------|
D--2h4--------------4--2h4p0-|-2h4--------------4--2h4p0-|
A----------------------------|---------------------------|
D--0-----0----0-----0------0-|-0-----0----0-----0--0---0-|
  
e--------------------------------|-----------------------------|
B--------------------------------|-----------------------------|
G--------------------------------|-----------------------------|
D------0----4-----0--0-0-0-0-x-0-|-----0----4-----0--0-0-0-x-0-|
A----------------------4-4-4-x-0-|---------------------4-4-x-0-|
D--4h5----5-----5--------5-5-x---|-4h5----5-----5--------5-x---|

Have a listen to this part of the song, the strumming is bit difficult
to tab out cause the strumming pattern/muting changes.
[ Tab from: http://www.guitartabs.cc/tabs/a/angus_and_julia_stone/babylon_tab_ver_5.html ]
[VERSE]
So rest your head
youíre all mine.
And I stay awake,
I wonít go home.
Letís go on a holiday.
To burn this town
Sheís my Babylon.

So rest your heart
youíre all mine.
Because if you walk away,
I fall on down.
And bleed, red as blood
Red as when.
Sheís my Babylon.

[CHORUS]
Not too sure about the name of the chords,
but I think the ones I used sound alright.

Fsus4: 224422
A11: 540xxx

      (Fsus4)             (A11)
e--------------|---------------------------|
B-----------2--|---------------------------|
G-----------2--|---------------------------|
D-----0-0-0-4--|------------0-0------------|
A-----5-5-5-2--|----------4-4-4------------|
D-----0-0-0-2--|----------5-5-5------------|
   No I     donít want to       see you go.

[Play VERSE part once]

   (Fsus4)        (A11)
No I donít want to, be alone.

[VERSE]
So rest your hand
youíre all mine.
I canít stay awake,
my eyes fall down.
Said I dreamed a dream
that you walk Ďround
Sheís my Babylon.

[CHORUS]
   (Fsus4)        (A11)
No I donít want to, see you go.

   (Fsus4)        (A11)
No I donít want to, be alone

   (Fsus4)        (A11)
No I donít want to, be alone.

   (Fsus4)        (A11)
No I donít want to, be alone.
Comments