Angus And Julia Stone - Babylon Chords & Tabs

 

Babylon Chords & Tabs

Angus And Julia Stone Chords & Tabs

Version: 4 Type: Tab 0 ratings
1 star 2 stars 3 stars 4 stars 5 stars
comments

Babylon Tab

   
This is my first tab, I have used Thomas B's Previous Tab, and editted it. THe tab below 
believe is more accurate and allows for all the notes to ring properly:-

.
e------------------------------------------------------------------|
B------------------------------------------------------------------|
G------------2-----------------------------2-----------------------|
D--2h4h5p0-----0--5--4—-—2h4-0----2h4h5p0----0--5--4-—2h4-0--------|
A------------------------------------------------------------------|
E------------------------------------------------------------------|

Perhaps its 2h4p0 or 2h4 0 (The latter sounds clearer perhaps)

e--------------------------------------------------------3-x--|
B----------------------------------------------------3---3-x--|
G----------------------------------------------------0---0-x--|
D--------0----4----0----0-0-x-x------0----4----0---0-0---0-x--|
A-----------------------2-2-x-x--------------------2-2---2-x--|
E---2h3-----3----3------3-3-x-x--2h3----3----3-----3-3---3-x--|

[ Tab from: http://www.guitartabs.cc/tabs/a/angus_and_julia_stone/babylon_tab_ver_4.html ]
listen to the song to get that rhythm, + with the muting, i may not be written down 
right, but you know yourself, once your playing the song you get the muting with the rhythm 
beat. (Much harder to isolate it and write it down :-) ).

the chords are strummed once during the chorus as follows:
    Em(022033)      G(320033)
(No I don’t want to be ay-ay-alone)

LYRICS:
So-oh rest your head-
you're all mine.
And I stay awake,
I won't go home.
Let's go on holidays.
To burn this town
She's my Baby-lo-on.

So rest your heart-
you're all mine.
Because if you walk away,
I fall on down.
And bleed, red as blood-
Red as wine.
She's my Baby-lo-on.

No I don't want to
see-ay-ay you go.
No I don't want to
be ay-ay-alone.

So rest your hand -
you're all mine.
I can't stay awake,
my eyes fall down.
Said I dreamed a dream
that you walk 'round
She's my Baby-lo-on.

No I don't want to
See-ay-ay you go.
No I don't want to
Be ay-ay-alone
No I don't want to
Be ay-ay-alone.
No I don't want to
Be alone.

P.s Feel free to correct or alter... and Many thanks to Thomas B, great song and i 
have known where to start without ya.

 E P.
Comments