Angus And Julia Stone - Babylon Chords & Tabs

 

Babylon Chords & Tabs

Angus And Julia Stone Chords & Tabs

Version: 1 Type: Tab 0 ratings
1 star 2 stars 3 stars 4 stars 5 stars
comments

Babylon Tab

'Babylon'
by angus & julia stone
from their album Chocolate & Cigarettes

ive never tabbed before, so if its abit wrong thats cos i dont know how to tab, it 
okay when i play it. feel free to suggest corrections.
*(the last p5 in brackets i just put there to make it sound more chordy cos it does when he plays it)
*(also when i have p5 or p4 i mean pull off that note you were on playing the open 
that may be the wrong way of expressing it though)


---------------------------------------------------------------------|
---------------------------------------------------------------------|
---3h4h5p0-0-h4h5----------------------------------------------------|
----------------------------4-4h5p5----------------------------------|
---------------------------------------------------------------------|
---------------------------------------------------------------------|

[ Tab from: http://www.guitartabs.cc/tabs/a/angus_and_julia_stone/babylon_tab.html ]
---------------------------------------------------------------------|
---------------------------------------------------------------------|
---3h4h5p0-0-h4h5----------------------------------------------------|
----------------------------4-4h5p5----------------------------------|
---------------------------------------------------------------------|
---------------------------------------------------------------------|


--------------------------------------------------------------------------|
--------------------------------------------------------------------------|
--------------------------------------------------------------------------|
-----------4------p4------------------------------------------------------|
---4-4/5p5----5--(p5)-----------------------------------------------------|
--------------------------------------------------------------------------|

So-oh rest your head-
you're all mine.
And I stay awake,
I won't go home.
Let's go on holidays.
To burn this town
She's my Baby-lo-on.

So rest your heart-
you're all mine.
Because if you walk away,
I fall on down.
And bleed, red as blood-
Red as wine.
She's my Baby-lo-on.

No I don't want to
see-ay-ay you go.
No I don't want to
be ay-ay-alone.

So rest your hand -
you're all mine.
I can't stay awake,
my eyes fall down.
Said I dreamed a dream
that you walk 'round
She's my Baby-lo-on.

No I don't want to
See-ay-ay you go.
No I don't want to
Be ay-ay-alone
No I don't want to
Be ay-ay-alone.
No I don't want to
Be alone.
Comments