Angra - Speed Chords & Tabs

 

Speed Chords & Tabs

Angra Chords & Tabs

Version: 1 Type: Tab 0 ratings
1 star 2 stars 3 stars 4 stars 5 stars
comments

Speed Tab

SPEED

ANGRA - SPEED

Tab by Robson Felipe Sobieski (robsonfelipe101@hotmail.com)

Intro 

|----------------------------------|-----------------------------------------|
|----------------------------------|---------------5-------------------------|
|----------------------------------|-----------------------------7-----------|
|--9----------11-----------12------|-----------------------------------------|
|--9-----------9------------9------|---5-----------5-------------5-----------|
|--7--7-7-7-7--7--7-7-7-7--7--7-7--|---3--3-3-3-3--3---3-3-3-3---3---3-3-----|
[ Tab from: http://www.guitartabs.cc/tabs/a/angra/speed_tab.html ]
|----------------------------------|----------------------------------|-------------------------|
|----------------------------------|----------------------------------|-------------------------|
|--7-----------6-------------------|--3-----------4-----------6-------|--6---4--4----7---6--6---|
|--------------------------9-------|----------------------------------|-------------------------|
|--7-----------7-----------7-------|--4-----------4-----------4-------|--5---5--5----7---7--7---|
|--5--5-5-5-5--5--5-5-5-5--5--5-5--|--2--2-2-2-2--2--2-2-2-2--2--2-2--|--3---3--3--(-5---5--5-)-|

( ) = last time...

|------------------------------------------|-----------------------------------------|
|------------------------------------------|-----------------------------------------|
|------------------------------------------|-----------------------------------------|
|--9-7------7------------------------------|--9-7----9-7------7----------------------|
|------11-7---11-7----11-7------7----------|------11-----11-7---11-7----11-7------7--|
|------------------10------10-7---10-7-10--|-------------------------10------10-7----|

 
|--------------------------------------------------|
|---------------------------------------10-----9---|
|---------------9~~----------------------9-----9---|
|---------------9~~----------------------9-----9---|
|--------------------------------------------------|
|--9-9-9-9-9-9-----------9-9-9-9-9-9---------------|
Comments