Ango - Fortrudt Chords & Tabs

 

Fortrudt Chords & Tabs

Ango Chords & Tabs

Version: 1 Type: Tab 0 ratings
1 star 2 stars 3 stars 4 stars 5 stars
comments

Fortrudt Tab

   





"Fortrudt"
by Ango
This the real version of "Fortrudt" And the lyrics are correct
Intro 2x
E||-------------------------------------------------------|
B||------6---6-------6---6--------4---4-------------------|
G||----0---0-------0---0--------0---0---------------------|
D||-------------------------------------------------------|
A||-/6----------5------------3----------------------------|
E||-------------------------------------------------------|

Verse 4x
     C           Cmaj9(B)    Am
E||---------------------------------------|
B||-------1---1-------1---1-------1---1---|
G||-----0---0-------0---0-------2---2-----|
D||---------------------------------------|
A||--3-----------2-----------0------------|
E||---------------------------------------|
[ Tab from: http://www.guitartabs.cc/tabs/a/ango/fortrudt_tab.html ]
Chorus 4x
     C           Cmaj9(B)    Am
E||--0-0-0-0-----------------0-0-0-0------|
B||--1-1-1-1-----1-1-1-1-----1-1-1-1------|
G||--0-0-0-0-----0-0-0-0-----2-2-2-2------|
D||--2-2-2-2-----0-0-0-0-----2-2-2-2------|
A||--3-3-3-3-----2-2-2-2-----0-0-0-0------|
E||---------------------------------------|

Verse 1:C - Cmaj9(B) - AmJeg kan mærke dit hjerteC - Cmaj9(B) - AmJeg kan mærke den varmeC - Cmaj9(B) - AmDu glider stille fra migC - Cmaj9(B) - AmHvorfor smutter du fra mig?Intro 2xChorus:C - Cmaj9(B) - Am(Ahhhhh) Har du fortrudt at vi mødtes?C - Cmaj9(B) - Am(Ahhhhh) Fortrudt det kys som vi gav hinanden?C - Cmaj9(B) - AmKan du huske den aften?C - Cmaj9(B) - AmVores stjerne blinkede dejlig smukt deroppeVerse 2:Jeg kan mærke din  varmeJeg kan mærke det fra hjertetHvorfor vil du ik tilbage?Du siger jo at du elsker migIntro 2xLad os bryde vores cirkelChorus:(Ahhhhh) Har du fortrudt at vi mødtes?(Ahhhhh) Fortrudt det kys som vi gav hinanden?Kan du huske den aften?Vores stjerne blinkede dejlig smukt deroppeVerse 3:Savner lugten af dit hårDen dejlige lugt, når du havde været i badJeg vil ik miste digDu er den eneste jeg elsker
Comments