Angie Martinez - If I Could Go Chords & Tabs

 

If I Could Go Chords & Tabs

Angie Martinez Chords & Tabs

Version: 1 Type: Tab 0 ratings
1 star 2 stars 3 stars 4 stars 5 stars
comments

If I Could Go Tab

Angie Martinez w/ Sacario and Lil Mo

"If I Could Go With You"


Version 1 

At first i thought this intro would be hella easy but it actually took
a few minutes to figure out.

This song is gangtsa yo.


Intro

----------------------------------------------------------------------
----------------------------------------------------------------------
----9---10--9------------------------------9----9-----9---------------
---10----------10--7-----7-----9---10--9---7--7---10--7---------------
-------------------7---7---7---11--------7----------------------------
----------------------------------------------------------------------


[ Tab from: http://www.guitartabs.cc/tabs/a/angie_martinez/if_i_could_go_tab.html ]
For the rest of the song its just the same thing without the first note
----------------------------------------------------------------------
----------------------------------------------------------------------
-------10--9-----------------------------9----9-----9-----------------
-------------10--7-----7-----9---10--9---7--7---10--7------repeat-----
-----------------7---7---7---11--------7------------------------------
----------------------------------------------------------------------


	
______________________________________________________________________
----------------------------------------------------------------------	
Version 2

E---------------------------------------------------------------------
B---6/4--2--------------2-1----------6--2-----------------------------
G-3---------3--3-----1---------1-3-3----------------------------------
D-----------3----3----------------------------------------------------
A---------------------------------------------------------------------
E---------------------------------------------------------------------

       

IT REPEATS AFTER THE 2ND FRET OF B


 THE SONG IS REAL EASY AND I HOPE YOU LIKE IT.!!!!!!!!!!!


------------------
I got these 2 tabs from www.tabcrawler.com cos i couldnt find em newhere
else....the second one seems rite....
Comments