Angels And Airwaves - War Chords & Tabs

 

War Chords & Tabs

Angels And Airwaves Chords & Tabs

Version: 3 Type: Tab

War Tab

 Artist: Angels & Airwaves
 Track: The War
 Album: We Don't Need To Whisper
 Tuning: (DADGBe)

I love this song, i think it's one of their best off this album.
anyway tell me what you think.

Intro (0:01 - 0:31)
 E|---------------------------------------------------|
 B|---------------------------------------------------|
 G|---------------------------------------------------|
 D|-------7--------5------4------4----4---------------|
 A|5-5-5------5-5-----5-5----5-5----5---5-------------| X2
 D|---------------------------------------------------|
   - - -      - -     - -    - -    -   -

 E|---------------------------------------------------|
 B|---------------------------------------------------|
 G|---------------------------------------------------|
 D|-------5--------4------4------4-----4--------------|
 A|0-0-0------0-0----0-0----0-0----0-0----------------|
 D|---------------------------------------------------| x1
   - - -      - -     - -    - -   - -


 E|---------------------------------------------------|
 B|---------------------------------------------------|
 G|---------------------------------------------------|
 D|-------7--------5------4------4-----4--------------|
 A|0-0-0------0-0----0-0----0-0----0-0----------------|
 D|---------------------------------------------------| x1 (whole intro x3)
   - - -      - -     - -    - -   - -

(0:31 - 0:51)
 E|---------------------------------------------------|
 B|---------------------------------------------------|
 G|---------------------------------------------------|
 D|---------------------------------------------------|
 A|-0-0--0-0--0-0--0-0--7--0-0--0-0--0-0--0-0---------|
 D|-0-0--0-0--0-0--0-0--7--0-0--0-0--0-0--0-0---------|


 E|-----------------------------------------------------|
 B|-----------------------------------------------------|
 G|-----------------------------------------------------|
 D|-----------------------------------------------------|
 A|-7---9-9--9-9--9-9--9-9--5--0-0--0-0--7-7--7-7---5---|
 D|-7---9-9--9-9--9-9--9-9--5--0-0--0-0--7-7--7-7---5---| x2

Verse (0:51 - 1:11)
 E|-----------------------------------------------------|
 B|-----------------------------------------------------|
 G|-----------------------------------------------------|
 D|-----------------------------------------------------|
 A|-0-(ring)--------------------------------------------|
 D|-0---------------------------------------------------|

Verse
 E|--------------------------------------------------------------------------------------------------|
 B|--------------------------------------------------------------------------------------------------|
 G|-7-7-7-7-7-7-7-7---11-11-11-11-11-11-11-11---12-12-12-12-12-12-12-12-12-12-12-12-12-12-12-12-12---|
 D|-x-x-x-x-x-x-x-x---x--x--x--x--x--x--x--x----x--x--x--x--x--x--x--x--x--x--x--x--x--x--x--x--x----|
 A|-5-5-5-5-5-5-5-5---9--9--9--9--9--9--9--9----10-10-10-10-10-10-10-10-10-10-10-10-10-10-10-10-10---|
 
x2

Pre Verse
Up and down stroking (1:11 - 1:31)

 E|------------------------------------------------------------------------------------------------|
 B|------------------------------------------------------------------------------------------------|
 G|------------------------------------------------------------------------------------------------|
 D|-0-0-0-0--0-0-0-0--0-0--0-0-0-0--0-0-0-0--0-0--0-0-0-0--0-0-0-0--0-0--0-0-0-0--0-0-0-0--0-0-----|
 A|-5-5-5-5--5-5-5-5--5-5--0-0-0-0--0-0-0-0--0-0--2-2-2-2--2-2-2-2--2-2--0-0-0-0--0-0-0-0--0-0-----| x2
 D|------------------------------------------------------------------------------------------------|

Chorus (1:32 - 1:51)
 E|---------------------------------------------------|
 B|---------------------------------------------------|
 G|-7--------7-7-7-7-7-7-7-7--5-5-5-5-5-5-5-5---------|
 D|-x--------7-7-7-7-7-7-7-7--5-5-5-5-5-5-5-5---------|
 A|-5--x16---7-7-7-7-7-7-7-7--5-5-5-5-5-5-5-5---------| x2
 D|----------7-7-7-7-7-7-7-7--5-5-5-5-5-5-5-5---------|

 (1:52 - 2:02)
 E|---------------------------------------------------|
 B|---------------------------------------------------|
 G|---------------------------------------------------|
 D|---------------------------------------------------|
 A|-0-0--0-0--0-0--0-0--7--0-0--0-0--0-0--0-0---------|
 D|-0-0--0-0--0-0--0-0--7--0-0--0-0--0-0--0-0---------|

E|----------------------------------------------------|
 B|---------------------------------------------------|
 G|---------------------------------------------------|
 D|---------------------------------------------------|
 A|-7---9-9--9-9--9-9--9-9--5--0-0--0-0--7-7--7-7---5-|
 D|-7---9-9--9-9--9-9--9-9--5--0-0--0-0--7-7--7-7---5-|
[ Tab from: http://www.guitartabs.cc/tabs/a/angels_and_airwaves/war_tab_ver_3.html ]
Verse (2:02 - 2:22)
 E|-----------------------------------------------------|
 B|-----------------------------------------------------|
 G|-----------------------------------------------------|
 D|-----------------------------------------------------|
 A|-0-(ring)--------------------------------------------|
 D|-0---------------------------------------------------|

Verse
 E|--------------------------------------------------------------------------------------------------|
 B|--------------------------------------------------------------------------------------------------|
 G|-7-7-7-7-7-7-7-7---11-11-11-11-11-11-11-11---12-12-12-12-12-12-12-12-12-12-12-12-12-12-12-12-12---|
 D|-x-x-x-x-x-x-x-x---x--x--x--x--x--x--x--x----x--x--x--x--x--x--x--x--x--x--x--x--x--x--x--x--x----|
 A|-5-5-5-5-5-5-5-5---9--9--9--9--9--9--9--9----10-10-10-10-10-10-10-10-10-10-10-10-10-10-10-10-10---|
 
x2

Pre Verse
Up and down stroking (2:22 - 2:42)

 E|------------------------------------------------------------------------------------------------|
 B|------------------------------------------------------------------------------------------------|
 G|------------------------------------------------------------------------------------------------|
 D|-0-0-0-0--0-0-0-0--0-0--0-0-0-0--0-0-0-0--0-0--0-0-0-0--0-0-0-0--0-0--0-0-0-0--0-0-0-0--0-0-----|
 A|-5-5-5-5--5-5-5-5--5-5--0-0-0-0--0-0-0-0--0-0--2-2-2-2--2-2-2-2--2-2--0-0-0-0--0-0-0-0--0-0-----| x2
 D|------------------------------------------------------------------------------------------------|

Chorus (2:43 - 3:02)
 E|---------------------------------------------------|
 B|---------------------------------------------------|
 G|-7--------7-7-7-7-7-7-7-7--5-5-5-5-5-5-5-5---------|
 D|-x--------7-7-7-7-7-7-7-7--5-5-5-5-5-5-5-5---------|
 A|-5--x16---7-7-7-7-7-7-7-7--5-5-5-5-5-5-5-5---------| x2
 D|----------7-7-7-7-7-7-7-7--5-5-5-5-5-5-5-5---------|


(Oh oh oh oh, oh oh oh, oh oh)

Come in 3:13

 E|------------------------------------------------------------------------------------------------|
 B|------------------------------------------------------------------------------------------------|
 G|------------------------------------------------------------------------------------------------|
 D|-0-0-0-0--0-0-0-0--0-0--0-0-0-0--0-0-0-0--0-0--0-0-0-0--0-0-0-0--0-0--0-0-0-0--0-0-0-0--0-0-----|
 A|-5-5-5-5--5-5-5-5--5-5--0-0-0-0--0-0-0-0--0-0--2-2-2-2--2-2-2-2--2-2--0-0-0-0--0-0-0-0--0-0-----|
 D|------------------------------------------------------------------------------------------------| x1

 E|------------------------------------------------------------------------------------------------|
 B|------------------------------------------------------------------------------------------------|
 G|------------------------------------------------------------------------------------------------|
 D|-0-0-0-0--0-0-0-0--0-0--0-0-0-0--0-0-0-0--0-0--0-0-0-0--0-0-0-0--0-0--0-0-0-0--0-0-0-0--0-0-----|
 A|-5-5-5-5--5-5-5-5--5-5--0-0-0-0--0-0-0-0--0-0--5-5-5-5--5-5-5-5--5-5--0-0-0-0--0-0-0-0--0-0-----|
 D|------------------------------------------------------------------------------------------------| x1

 E|--------------------------------------------------------------|
 B|--------------------------------------------------------------|
 G|--------------------------------------------------------------|
 D|-0-0-0-0--0-0-0-0--0-0--0-0-0-0--0-0-0-0--0-0-----------------|
 A|-2-2-2-2--2-2-2-2--2-2--0-0-0-0--0-0-0-0--0-0-----------------|
 D|--------------------------------------------------------------| x2

Chorus (3:43 - 4:23)
 E|---------------------------------------------------|
 B|---------------------------------------------------|
 G|-7--------7-7-7-7-7-7-7-7--5-5-5-5-5-5-5-5---------|
 D|-x--------7-7-7-7-7-7-7-7--5-5-5-5-5-5-5-5---------|
 A|-5--x16---7-7-7-7-7-7-7-7--5-5-5-5-5-5-5-5---------| x3
 D|----------7-7-7-7-7-7-7-7--5-5-5-5-5-5-5-5---------|

 (4:24 - 4:44)
 E|---------------------------------------------------|
 B|---------------------------------------------------|
 G|---------------------------------------------------|
 D|---------------------------------------------------|
 A|-0-0--0-0--0-0--0-0--7--0-0--0-0--0-0--0-0---------|
 D|-0-0--0-0--0-0--0-0--7--0-0--0-0--0-0--0-0---------|

 E|-----------------------------------------------------|
 B|-----------------------------------------------------|
 G|-----------------------------------------------------|
 D|-----------------------------------------------------|
 A|-7---9-9--9-9--9-9--9-9--5--0-0--0-0--7-7--7-7---5---|
 D|-7---9-9--9-9--9-9--9-9--5--0-0--0-0--7-7--7-7---5---| x2

 E|-----------------------------------------------------|
 B|-----------------------------------------------------|
 G|-----------------------------------------------------|
 D|-----------------------------------------------------|
 A|-0-(ring)--------------------------------------------|
 D|-0---------------------------------------------------|

That's it. hope you like it!