Angels And Airwaves - War Chords & Tabs

 

War Chords & Tabs

Angels And Airwaves Chords & Tabs

Version: 1 Type: Tab

War Tab

i couldn't figure out the intro. the palm muting part.


(0:31)
|---------------------------------------------------------------------|
|---------------------------------------------------------------------|
|---------------------------------------------------------------------|
|------------------------------------------------------------7-7-7-7--|
|--7-7-7-7---7-7-7-7-/-9-9-9-9--7-7-7-7---7-7-7-7-/-9-9-9-9--5-5-5-5--|
|--5-5-5-5---5-5-5-5-/-7-7-7-7--5-5-5-5---5-5-5-5-/-7-7-7-7-----------|

|----------------------------------------------------------------------|
|----------------------------------------------------------------------|
|----------------------------------------------------------------------|
|-7-7-7-7---------9-9-9-9-----------x-x-x------------------------------|
|-5-5-5-5-7-7-7-7-7-7-7-7-9-9-9-9---x-x-x--7-7-7-7--7-7-7-7-/-9-9-9-9--|
|---------5-5-5-5---------7-7-7-7---x-x-x--5-5-5-5--5-5-5-5-/-7-7-7-7--|

|-----------------------------------------------------------------------|
|-----------------------------------------------------------------------|
|-----------------------------------------------------------------------|
|------------------------------7-7-7-7--7-7-7-7----------9-9-9-9--------|
|--7-7-7-7--7-7-7-7-/-9-9-9-9--5-5-5-5--5-5-5-5--7-7-7-7-7-7-7-7-9-9-9-9|
|--5-5-5-5--5-5-5-5-/-7-7-7-7--------------------5-5-5-5---------7-7-7-7|

(0:50)   "the ocean, is on fire....."
|---------------------------------------------------------|
|---------------------------------------------------------|
|---------------------------------------------------------|
|-x-x-x---------------------------------------------------|
|-x-x-x--7~~~-let ring------------------------------------|
|-x-x-x--5~~~---------------------------------------------|

(1:11) "belive...do you want this...."
|------------------------------------------------------------------------|
|------------------------------------------------------------------------|
|--7---------------------------------------------------------------------|
|--x--strum this listen to the song.-------------------------------------|
|--5---------------------------------------------------------------------|
|------------------------------------------------------------------------|

(1:31) "Why won't you tell me that...."
|----------|
|----------|
|----------|
|----------|
|--7-strum-|
|--5-------|

(1:37) "its olmost...."
|-----------|
|-----------|
|-----------|
|-----------|
|--9-strum--|
|--7--------|

(1:40) "over."
|-----------|
|-----------|
|-----------|
|--9-strum--|
|--7--------|
|-----------|

(1:42) "why must this..."
|-----------|
|-----------|
|-----------|
|-----------|
|--7-strum--|
|--5--------|

(1:44) "tear my head..."
|-----------|
|-----------|
|-----------|
|-----------|
|--9 strum--|
|--7--------|

(1:47) "inside out."
|-----------|
|-----------|
|-----------|
|--7 strum--|
|--5--------|
|-----------|

(1:52)
|---------------------------------------------------------------------|
|---------------------------------------------------------------------|
|---------------------------------------------------------------------|
|------------------------------------------------------------7-7-7-7--|
|--7-7-7-7---7-7-7-7-/-9-9-9-9--7-7-7-7---7-7-7-7-/-9-9-9-9--5-5-5-5--|
|--5-5-5-5---5-5-5-5-/-7-7-7-7--5-5-5-5---5-5-5-5-/-7-7-7-7-----------|

|------------------------------------------|
|------------------------------------------|
|------------------------------------------|
|-7-7-7-7---------9-9-9-9-----------x-x-x--|
|-5-5-5-5-7-7-7-7-7-7-7-7-9-9-9-9---x-x-x--|
|---------5-5-5-5---------7-7-7-7---x-x-x--|
[ Tab from: http://www.guitartabs.cc/tabs/a/angels_and_airwaves/war_tab.html ]
(2:02) "and the houses layed out like targets...."
|------------------------------------------|
|------------------------------------------|
|------------------------------------------|
|------------------------------------------|
|--7~~~-LET RING---------------------------|
|--5~~~------------------------------------|
(2:22) "beleive... you want this..."
|-----------|
|-----------|
|-----------|
|--7--------|
|--x-strum--|
|--5--------|
(2:42) "why wont you tell me that..."
|-----------|
|-----------|
|-----------|
|-----------|
|--7-strum--|
|--5--------|
(2:47) "its olmost over..."
|-----------|
|-----------|
|-----------|
|-----------|
|--9-strum--|
|--7--------|
(2:52)"why must this tear my head inside out"
|-----------|
|-----------|
|-----------|
|--9-strum--|
|--7--------|
|-----------|

|------------|
|------------|
|------------|
|------------|
|--7~~~-ring-|
|--5~~~------|
(3:13) "oh, oh oh oh oh, oh oh oh..."
|------------------|
|------------------|
|------------------|
|--7---------------|
|--x-strum---------|
|--5---------------|

(3:43) "why wont you tell me that..."
|-------------|
|-------------|
|-------------|
|-------------|
|--7----------|
|--5----------|

(3:48) "Its olmost..."
|-------------|
|-------------|
|-------------|
|-------------|
|--9----------|
|--7----------|

(3:51)"over..."
|-------------|
|-------------|
|-------------|
|--7----------|
|--5----------|
|-------------|

(3:53) "why must this"
|-------------|
|-------------|
|-------------|
|-------------|
|--7----------|
|--5----------|
(3:55) "tear my head..."
|-------------|
|-------------|
|-------------|
|-------------|
|--9----------|
|--7----------|

(3:58) "inside out..."
|-------------|
|-------------|
|-------------|
|--7----------|
|--5----------|
|-------------|
(4:03) "why wont you tell me that..."
|-------------|
|-------------|
|-------------|
|-------------|
|--7----------|
|--5----------|

(4:08) "its olmost..."
|-------------|
|-------------|
|-------------|
|-------------|
|--9----------|
|--7----------|

(4:11) "over..."
|-------------|
|-------------|
|-------------|
|-------------|
|--9----------|
|--7----------|
|-------------|

(4:13) "why must this..."
|-------------|
|-------------|
|-------------|
|-------------|
|--7----------|
|--5----------|

(4:16) "tear my head..."
|-------------|
|-------------|
|-------------|
|-------------|
|--9----------|
|--7----------|

(4:18) "inside out..."
|-------------|
|-------------|
|-------------|
|--7----------|
|--5----------|
|-------------|

(4:23)
|---------------------------------------------------------------------|
|---------------------------------------------------------------------|
|---------------------------------------------------------------------|
|------------------------------------------------------------7-7-7-7--|
|--7-7-7-7---7-7-7-7-/-9-9-9-9--7-7-7-7---7-7-7-7-/-9-9-9-9--5-5-5-5--|
|--5-5-5-5---5-5-5-5-/-7-7-7-7--5-5-5-5---5-5-5-5-/-7-7-7-7-----------|

|----------------------------------------------------------------------|
|----------------------------------------------------------------------|
|----------------------------------------------------------------------|
|-7-7-7-7---------9-9-9-9-----------x-x-x------------------------------|
|-5-5-5-5-7-7-7-7-7-7-7-7-9-9-9-9---x-x-x--7-7-7-7--7-7-7-7-/-9-9-9-9--|
|---------5-5-5-5---------7-7-7-7---x-x-x--5-5-5-5--5-5-5-5-/-7-7-7-7--|

|-----------------------------------------------------------------------|
|-----------------------------------------------------------------------|
|-----------------------------------------------------------------------|
|------------------------------7-7-7-7--7-7-7-7----------9-9-9-9--------|
|--7-7-7-7--7-7-7-7-/-9-9-9-9--5-5-5-5--5-5-5-5--7-7-7-7-7-7-7-7-9-9-9-9|
|--5-5-5-5--5-5-5-5-/-7-7-7-7--------------------5-5-5-5---------7-7-7-7|

         (4:44) "oh oh oh oh oh oh oh..."
|---------------------------------------------------------|
|---------------------------------------------------------|
|---------------------------------------------------------|
|-x-x-x---------------------------------------------------|
|-x-x-x--7~~~-let ring------------------------------------|
|-x-x-x--5~~~---------------------------------------------|

THE END!!!!