Angels And Airwaves - The Adventure Chords & Tabs

 

The Adventure Chords & Tabs

Angels And Airwaves Chords & Tabs

Version: 1 Type: Tab 1 rating
1 star 2 stars 3 stars 4 stars 5 stars
comments

The Adventure Tab

   
Standard Tuning: EADGBe

Intro, after the sweet space noises (does anyone know a program that has cool noises like this?)
RIFF A
Guitar 1: (0:25)
e--------2-----2------2------2------2------2-------2------2----------|
B--------------------------------------------------------------------|repeat this
G----4------4-----3------3------1------1------3-------3-------6------| times
D--------------------------------------------------------------------|or until
A--------------------------------------------------------------(1:04-|
E--------------------------------------------------------------------|

RIFF B
Guitar 2: begins to fade in at (0:38) [w/ delay]
e----------2--------2-0------------------------------|
B-----------------------4----------------------------|eiter do this
G------4--------4------------------------until (1:04-|
D----------------------------------------------------|or....
A---2--------2---------------------------------------|
E----------------------------------------------------|

Guitar 2: begins to fade in at (0:38) [w/ delay]
e--------2---------2-0-------------------------------|
B----------------------4-----------------------------|do this
G---4----------4-------------------------until (1:04-|
D----------------------------------------------------|or......
A-----2-----2----------------------------------------|
E----------------------------------------------------|

Guitar 2: begins to fade in at (0:38) [w/ delay]
e----------------------------------------------------|
B--------7------7------------------------------------|do this
G-----------------9-8--------------------until (1:04-|
D-----9------9---------------------------------------|or.....
A----------------------------------------------------|
E---7------7-----------------------------------------|

Guitar 2: begins to fade in at (0:38) [w/ delay]
e----------------------------------------|
B---------7------7-----------------------|
G------------------9-8-------------------|do this
D---9---------9--------------------------|until (1:04)
A----------------------------------------|
E------7----7----------------------------|

I can't decide which part that 2nd Guitar plays cuz of that delay, but it is one of those 4.

RIFF C
Guitar 1: one strums (1:05)
        G#        E        B        F#
e----x-----x----x-----x----------------------|
B----x-----x----x-----x----------------------|
G----x-----9----x-----x----------------------|play until
D----6-----9----9-----4----------------------|(1:58)
A----6-----7----9-----4----------------------|
E----4-----x----7-----2----------------------|

RIFF D
Guitar 2: (1:05) [w/ delay]
e---------------------------------------------------------------------------------|
B--7--5-4-5-4-0--5-4-0--------7--5-4-5-4-0--5-4-0------------7-7-7-9-5-5-4--------|
G---------------------------------------------------------------------------------|
D-----------------------4-2-1----------------------4-2-1--------------------------|
A---------------------------------------------------------------------------------|
E---------------------------------------------------------------------------------|
[ Tab from: http://www.guitartabs.cc/tabs/a/angels_and_airwaves/the_adventure_tab.html ]
e---------------------------------------------------------------------------------|
B--7-7-7-9-5-5-4----7--5-4-5-4-0--5-4-0-------------------------------------------|
G---------------------------------------------------------------------------------|
D----------------------------------------4-2-1------------------------------------|
A---------------------------------------------------------------------------------|
E---------------------------------------------------------------------------------|

RIFF E
During the verse Guitar 1 plays one strums, but Guitar 2 kinda picks these notes quietly [w/delay]...
e------------------------------|
B-----------------2------------|
G----4---4---4-----------------|
D------------------------------|
A------------------------------|
E------------------------------|

RIFF F
Then, at (1:58), Guitar 1 strums this:
              B
e-------x---------|
B-------x---------|
G-------4---------|
D-------4---------|
A-------2---------|
E-------x---------|

RIFF G
...and Guitar 2 [w/ delay] plays this note over and over until (2:12):
e-----2------|
B------------|
G------------|
D------------|
A------------|
E------------|

Then at (2:12), Guitar 1 goes back to RIFF C and plays it until (2:52) when it plays 
F. And Guitar 2 at (2:12) goes back to RIFF D and plays the first half of it until (2:25) 
it plays RIFF E until (2:52) and begins to play RIFF G until (3:31).

RIFF H
Guitar 1: (3:31)
e------------------------------------------------------------------------|
B------------------------------------------------------------------------|play this
G------------------------------------------------------------6-----------| times (or
D------------------------------------------------------------until (4:11-|)
A------9-(x8)--7-(x8)--6-(x8)--4-(x8)------------------------------------|
E------------------------------------------------------------------------|

RIFF I
Guitar 2: (3:45)
e------------------------------------------------------------------------|
B------------------------------------------------------------------------|play this
G------------------------------------------------------------4-----------| times (or
D------------------------------------------------------------until (4:11-|)
A------2-(x8)--4-(x8)--6-(x8)--7-(x8)------------------------------------|
E------------------------------------------------------------------------|

RIFF J
Guitar 1 one strums: (4:11)
         B         Bb       G#
e----x-----x-----x----------|
B----x-----x-----x----------|
G----x-----x-----x----------|play until
D----9-----8-----6----------|(4:38)
A----9-----8-----6----------|
E----7-----6-----4----------|

RIFF K
Guitar 2 [w/ delay]: (4:11)
e------14----7--9---(11)-------------------------------------|
B------------------------------------------------------------|
G------------------------------------------------------------|play until
D------------------------------------------------------------|(4:38)
A------------------------------------------------------------|
E------------------------------------------------------------|

At (4:38), Guitar 2 continues RIFF B until the end of the song (5:40).
Sweet space noises end the song with Guitar 2.
Comments