Angels And Airwaves - Machine Chords & Tabs

 

Machine Chords & Tabs

Angels And Airwaves Chords & Tabs

Version: 1 Type: Tab

Machine Tab

The Machine (Bonus Track) Off Angels & Airwaves album.
This is not start the machine, it's the same lyrics but with different music.

Ok anyway i had a go and it sounds good.

Tuning: Standard (EADGBe)

|----------------------------------------|
|----------------------------------------|
|---------------6h8----------------------|
|--------8h9-9---------------------------|
|-8---9----------------------------------|
|-6-/-7----------------------------------| x1

|----------------------------------------|
|----------------------------------------|
|-----------------6h8--------------------|
|--------9--8h9-9------------------------|
|----------------------------------------|
|-7-7-7----------------------------------| x5
  - - -

|----------------------------------------|
|----------------------------------------|
|----------------------------------------|
|----------------------------------------|
|-8---9--9--9--9--8--8-------------------|
|-6-/-7--7--7--7--6--6-------------------| x4


VERSE (these are the chords you can work out strumming yourself)
|--------------------------------------------|
|--------------------------------------------|
|----------------6---8--8---9-6-6--8---9-6-6-|
|----------------6---8--8---9-6-6--8---9-6-6-|
|-8---9--9--9----4-/-6--6-/-7-4-4--6-/-7-4-4-|
|-6-/-7--7--7--------------------------------| x4

You know i wont say sorry..
|------------------------------------------|
|------------------------------------------|
|--------------4-----6---------------------|
|-6-----4------4-----4---------------------|
|-6-----4--x8--2-x8--2-x8------------------|
|-4-x8--2--------------------------------x-|2 (on 2nd only play two first chords)
[ Tab from: http://www.guitartabs.cc/tabs/a/angels_and_airwaves/machine_tab.html ]
|----------------------------------------|
|----------------------------------------|
|----------------------------------------|
|----------------------------------------|
|-8---9--9--9--9--8--8-------------------|
|-6-/-7--7--7--7--6--6-------------------| x4

VERSE (these are the chords you can work out strumming yourself)
|--------------------------------------------|
|--------------------------------------------|
|----------------6---8--8---9-6-6--8---9-6-6-|
|----------------6---8--8---9-6-6--8---9-6-6-|
|-8---9--9--9----4-/-6--6-/-7-4-4--6-/-7-4-4-|
|-6-/-7--7--7--------------------------------| x4

You know i wont say sorry..
|------------------------------------------|
|------------------------------------------|
|--------------4-----6---------------------|
|-6-----4------4-----4---------------------|
|-6-----4--x8--2-x8--2-x8------------------|
|-4-x8--2--------------------------------x-|2 (on 2nd only play two first chords)

|----------------------------------------|
|----------------------------------------|
|----------------------------------------|
|----------------------------------------|
|-8---9--9--9--9--8--8-------------------|
|-6-/-7--7--7--7--6--6-------------------| x4

|----------------------------------------|
|----------------------------------------|
|-----------------6h8--------------------|
|--------9--8h9-9------------------------|
|----------------------------------------|
|-7-7-7----------------------------------| x10
  - - -

it makes me wanna scream..
|----------------------------------------|
|----------------------------------------|
|----------------------------------------|
|----------------------------------------|
|-8---9--9--9--9--8--8-------------------|
|-6-/-7--7--7--7--6--6-------------------| x8

Instrument at the end tabbed out:
|-----------------------------------------------------------------|
|-----------------------------------------------------------------|
|-8-8-8--9-9--8----8-------8----11-11-11-----8---8(fade-out)------|
|--------------9----9----9---9-----------------9---9--------------|
|-----------------------------------------------------------------|
|-----------------------------------------------------------------|