Angels And Airwaves - It Hurts Chords & Tabs

 

It Hurts Chords & Tabs

Angels And Airwaves Chords & Tabs

Version: 5 Type: Tab

It Hurts Tab

song-It hurts
artist- angels and airwaves
album- we dont need to whisper
tabbed by : Rockinjoey
guitarist: Tom Delonge and David Kennedy

this is my first tablature and everyone elses versions just didnt do it
for me so i made my own, I know its not "100 %" but gosh darn it its better 
then the ones ive seen out there! 

comments questions, suggestions email me kooljoey24@yahoo.com

key /\ = dont pluck next string , add finger for next 
note while first note is already played

INTRO

Guitar 1 

e|9--9--9--9----|9--9--9--9----|9--9--9--9----|9--9--9--9----|
B|-10-10-10-10--|-10-10-10-10--|-10-10-10-10--|-10-10-10-10--|*
G|--------------|--------------|--------------|--------------| *
D|--------------|--------------|--------------|--------------|  *
A|--------------|--------------|--------------|--------------|   *   
E|--------------|--------------|--------------|--------------|    *
Guitar 2 (on the off beat) (slide to the next note)                                        
                                                                    x2
e|--------------|--------------|--------------|--------------|      *
B|--------------|--------------|--------------|--------------|     *
G|--6--6--6--6--|--7--7--7--7--|--9--9--9--9--|--7--7--7--7--|    *
D|--------------|--------------|--------------|--------------|   *
A|--------------|--------------|--------------|--------------|  *
E|--------------|--------------|--------------|--------------| *


((2nd intro part))
Guitar 1 
e|---5--5--------|---------------|---5---5--------|--------------|
B|---------6---6-|---5--5---5--5-|----------6---6-|--5--5---5--5-|*
G|6---6--7---7---|6---6---4---4--|6---6---7---7---|6--6---4---4--| *
D|---------------|---------------|----------------|--------------|  *
A|---------------|---------------|----------------|--------------|   *
E|---------------|---------------|----------------|--------------|    *
-
Guitar 2 (watch out this is complicated :D )                           X2
e|--------------|---------------|---------------|----------------|    *
B|--------------|---------------|---------------|----------------|   *
G|22------------|---------------|---------------|----------------|  *
D|xx------------|---------------|---------------|----------------| *
A|00-0-0-0-0-0-0|0-0-0-0-0-0-0-0|0-0-0-0-0-0-0-0|0-0-0-0-0-0-0-0-|*
E|--------------|---------------|---------------|----------------|

Guitar 2 (again) 
  1 + 2 + 3 + 4 +                                 
e|---------------|--------------|---------------|----------------|
B|---------------|--------------|---------------|----------------|
G|2-----2-----2-2|--------------|---------------|----------------|
D|x-----x-----x-x|--------------|---------------|----------------|
A|0-----0-----0-0|--------------|---------------|----------------|
E|---------------|--------------|---------------|----------------|

Guitar 2 (pre-verse)
e|---------------|---------------|---------------|---------------|
B|---------------|---------------|---------------|---------------|
G|2---2-2-2-2-2-2|4---4-4-4-4-4-4|---------------|7---7-7-7-7-7-7|
D|x---x-x-x-x-x-x|4---4-4-4-4-4-4|4---4-4-4-4-4-4|7---7-7-7-7-7-7| (2x)
A|0---0-0-0-0-0-0|2---2-2-2-2-2-2|4---4-4-4-4-4-4|5---5-5-5-5-5-5|
E|---------------|---------------|2---2-2-2-2-2-2|---------------|
    
Guitar 1     (riff 1)     /\   /\                          /\ /\
e|9-9------------|---------------|9-9------------|---------------|
B|----10----12---|-------10121012|----10----12---|-------10121012|
G|-------9-------|---------------|-------9-------|---------------|
D|---------------|---------------|---------------|---------------|
A|---------------|---------------|---------------|---------------|
E|---------------|---------------|---------------|---------------|
                          
e|9-9------------|---------------|--------------|----------------|
B|----10----12---|---------14----|------------12|----------14----|
G|-------9-------|-------------14|---------9----|--------------14|
D|---------------|---------------|--------------|----------------|
A|---------------|---------------|--------------|----------------|
E|---------------|---------------|--------------|----------------|
          
(play while riff 1 on guitar 1 is playing)
Guitar 2 (emphasis the note of the first beat)(play while guitar 1 is playing)
e|---------------|---------------|---------------|----------------|
B|---------------|---------------|---------------|----------------|
G|---------------|---------------|6-6-6-6-6-6-6-6|----------------|
D|7-7-7-7-7-7-7-7|6-6-6-6-6-6-6-6|---------------|9-9-9-9-9-9-9-9-|  2x
A|---------------|---------------|---------------|----------------|
E|---------------|---------------|---------------|----------------|

 verse- "is this what u want.."
[ Tab from: http://www.guitartabs.cc/tabs/a/angels_and_airwaves/it_hurts_tab_ver_5.html ]
e|---------------|---------------|---------------|----------------|
B|---------------|---------------|---------------|----------------|
G|---------------|---------------|6-6-6-6-6-6-6-6|----------------|
D|7-7-7-7-7-7-7-7|6-6-6-6-6-6-6-6|---------------|9-9-9-9-9-9-9-9-|  4x
A|---------------|---------------|---------------|----------------|
E|---------------|---------------|---------------|----------------|

Chorus- Guitar 1 

e|9-------9------|10------10-----|12-------12----|7---------7----|
B|---10------10--|---10------10--|---10------10--|---9--------9--|
G|---------------|---------------|---------------|---------------|
D|---------------|---------------|---------------|---------------|
A|---------------|---------------|---------------|---------------|  
E|---------------|---------------|---------------|---------------|


e|9-------9------|10------10-----|12-------12----|7---------7----|
B|---10------10--|---10------10--|---10------10--|---9--------9--|
G|---------------|---------------|---------------|---------------|
D|---------------|---------------|---------------|---------------|
A|---------------|---------------|---------------|---------------|
E|---------------|---------------|---------------|---------------|

guitar 2
e|---------------|---------------|---------------|---------------|
B|---------------|---------------|---------------|---------------|
G|2-2-2-2-2-2-2-2|7-7-7-7-7-7-7-7|2-2-2-2-2-2-2-2|9-9-9-9-9-9-9-9|
D|2-2-2-2-2-2-2-2|7-7-7-7-7-7-7-7|2-2-2-2-2-2-2-2|9-9-9-9-9-9-9-9|
A|0-0-0-0-0-0-0-0|5-5-5-5-5-5-5-5|0-0-0-0-0-0-0-0|7-7-7-7-7-7-7-7|
E|---------------|---------------|---------------|---------------|

e|---------------|-----------------|-----------------|-----------------|
B|---------------|-----------------|-----------------|-----------------|
G|---------------|7-7-7-7-7-7-7-7-7|-----------------|9-9-9-9-9-9-9-9-9|
D|4-4-4-4-4-4-4-4|7-7-7-7-7-7-7-7-7|7-7-7-7-7-7-7-7-7|9-9-9-9-9-9-9-9-9|
A|4-4-4-4-4-4-4-4|5-5-5-5-5-5-5-5-5|7-7-7-7-7-7-7-7-7|7-7-7-7-7-7-7-7-7|
E|2-2-2-2-2-2-2-2|-----------------|5-5-5-5-5-5-5-5-5|-----------------|

(pre-verse 2 x)
(verse 4 x)
(*chorus)
(interlude-- same thing as ((2nd intro part)) (both guitar 1 and 2) 4x

solo part ending
GUITAR 1

e|------------------------------------------------|
B|------------------------------------------------|
G|-22-(feedback)-----2-2b~----2/14/2--------------|
D|-xx-------------------------------(pickslide)---|
A|-00-----------2-0-------------------------------|
E|------------------------------------------------|
Guitar 2

e|9--9--9--9----|9--9--9--9----|9--9--9--9----|9--9--9--9----|
B|-10-10-10-10--|-10-10-10-10--|-10-10-10-10--|-10-10-10-10--|
G|--------------|--------------|--------------|--------------|
D|--------------|--------------|--------------|--------------|
A|--------------|--------------|--------------|--------------|
E|--------------|--------------|--------------|--------------|

e|9--9--9--9----|9--9--9--9----|9--9--9--9----|9--9--9--9----|
B|-10-10-10-10--|-10-10-10-10--|-10-10-10-10--|-10-10-10-10--|
G|--------------|--------------|--------------|--------------|
D|--------------|--------------|--------------|--------------|
A|--------------|--------------|--------------|--------------|
E|--------------|--------------|--------------|--------------|

(if cant do solo or playing acoustic can substitute guitar 1 with the bass part here
(can make it a power chord for more filler)
e|---------------|---------------|---------------|---------------|
B|---------------|---------------|---------------|---------------|
G|---------------|---------------|---------------|---------------|
D|4-4-4-4-4-4-4-4|4-4-4-4-4-4-4-4|2-2-2-2-2-2-2-2|2-2-2-2-2-2-2-2|
A|4-4-4-4-4-4-4-4|4-4-4-4-4-4-4-4|2-2-2-2-2-2-2-2|2-2-2-2-2-2-2-2|
E|2-2-2-2-2-2-2-2|2-2-2-2-2-2-2-2|0-0-0-0-0-0-0-0|0-0-0-0-0-0-0-0|

e|---------------|---------------|---------------|---------------|
B|---------------|---------------|---------------|---------------|
G|2-2-2-2-2-2-2-2|2-2-2-2-2-2-2-2|9-9-9-9-9-9-9-9|7-7-7-7-7-7-7-7|
D|2-2-2-2-2-2-2-2|2-2-2-2-2-2-2-2|9-9-9-9-9-9-9-9|7-7-7-7-7-7-7-7|
A|0-0-0-0-0-0-0-0|0-0-0-0-0-0-0-0|7-7-7-7-7-7-7-7|5-5-5-5-5-5-5-5|
E|---------------|---------------|---------------|---------------|

chorus-- alittle different--

Guitar 1- (*same thing as before )

guitar 2
e|---------------|---------------|---------------|---------------|
B|---------------|---------------|---------------|---------------|
G|2-2-2-2-2-2-2-2|7-7-7-7-7-7-7-7|9-9-9-9-9-9-9-9|9-9-9-9-9-9-9-9|
D|2-2-2-2-2-2-2-2|7-7-7-7-7-7-7-7|9-9-9-9-9-9-9-9|9-9-9-9-9-9-9-9|
A|0-0-0-0-0-0-0-0|5-5-5-5-5-5-5-5|7-7-7-7-7-7-7-7|7-7-7-7-7-7-7-7|
E|---------------|---------------|---------------|---------------|

e|----------------|-----------------|-----------------|-----------------|
B|----------------|-----------------|-----------------|-----------------|
G|1111111111111111|7-7-7-7-7-7-7-7-7|-----------------|9-9-9-9-9-9-9-9-9|
D|1111111111111111|7-7-7-7-7-7-7-7-7|7-7-7-7-7-7-7-7-7|9-9-9-9-9-9-9-9-9|
A|9-9-9-9-9-9-9-9-|5-5-5-5-5-5-5-5-5|7-7-7-7-7-7-7-7-7|7-7-7-7-7-7-7-7-7|
E|----------------|-----------------|5-5-5-5-5-5-5-5-5|-----------------|

(pre-verse)(guitar 2) 4x --let last note ring out-- 
(riff 1)- (guitar 1)