Angels And Airwaves - It Hurts Chords & Tabs

 

It Hurts Chords & Tabs

Angels And Airwaves Chords & Tabs

Version: 4 Type: Tab

It Hurts Tab

   
Song:      It Hurts
Artist:    Angels and Airwaves
Album:     We Don't Need To Whisper
Tabbed By: John Testa

::INTRO::

GUITAR 1:
e|-9----------9--------9--------9--------9--------9--------9--------9--------|
B|------10--------10-------10-------10-------10-------10-------10-------10---|
G|---6------6---6----6---7----7---7----7---9----9---9----9---7----7---7----7-|
D|---------------------------------------------------------------------------| (2x)
A|---------------------------------------------------------------------------|
E|---------------------------------------------------------------------------|

::INTRO PT.2::

GUITAR 1:
e|--------------------------------------------------------------------------------------|
B|--------------------------------------------------------------------------------------|
G|----14----14----10----10----9----9---9---9-----14----14----10----10----9----9---9---9-|
D|-11----11----12----12----11---11---9---9----11----11----12----12----11---11---9---9---| (2x)
A|--------------------------------------------------------------------------------------|
E|--------------------------------------------------------------------------------------|

GUITAR 2:
e|----|
B|----|
G|-22-|
D|-xx-| (2x)
A|-00-|
E|----|

::PAUSE::

GUITAR 2:
e|--------|
B|--------|
G|-22-222-|
D|-xx-xxx-|
A|-00-000-|
E|--------|

::CHORUS::

GUITAR 2:
e|-------------------------------------|
B|-------------------------------------|
G|-2-222222-4-444444----------7-777777-|
D|-x-xxxxxx-x-xxxxxx-4-444444-x-xxxxxx-| (2x)
A|-0-000000-2-222222-x-xxxxxx-5-555555-|
E|-------------------2-222222----------|

::PRE VERSE::

GUITAR 1:
e|-9-----------------------9---------------------9-----------------------|
B|---10---12--10----10-------10----12--10----10----10----12--14-10----12-|
G|---------------13----13--------9--------13-----------9------------9----|
D|-----------------------------------------------------------------------|
A|-----------------------------------------------------------------------|
E|-----------------------------------------------------------------------|

GUITAR 2:
e|-------------------------------------------------------------------|
B|-------------------------------------------------------------------|
G|-22222222444444446666666677774444-22222222444444446666666677774444-|
D|-xxxxxxxxxxxxxxxxxxxxxxxxxxxxxxxx-xxxxxxxxxxxxxxxxxxxxxxxxxxxxxxxx-|
A|-00000000222222224444444455552222-00000000222222224444444455552222-|
E|-------------------------------------------------------------------|

::VERSE::
[ Tab from: http://www.guitartabs.cc/tabs/a/angels_and_airwaves/it_hurts_tab_ver_4.html ]
GUITAR 2:
e|-------------------------------------------------------------------|
B|-------------------------------------------------------------------|
G|-22222222444444446666666677774444-22222222444444446666666677774444-|
D|-xxxxxxxxxxxxxxxxxxxxxxxxxxxxxxxx-xxxxxxxxxxxxxxxxxxxxxxxxxxxxxxxx-| (2x)
A|-00000000222222224444444455552222-00000000222222224444444455552222-|
E|-------------------------------------------------------------------|

::PRE CHORUS::

GUITAR 1:
e|-9----------|
B|---10-12-10-|
G|------------|
D|------------| (8x)
A|------------|
E|------------|

::REPEAT CHORUS HERE::

::REPEAT VERSE HERE::

::REPEAT PRE CHORUS HERE::

::INTERLUDE PT.1::

GUITAR 1:
e|-------------------------------------------|
B|-------------------------------------------|
G|----14----14----10----10----9----9---9---9-|
D|-11----11----12----12----11---11---9---9---| (4x)
A|-------------------------------------------|
E|-------------------------------------------|

::INTERLUDE PT.2::

GUITAR 1:
e|-------------------------------------------|
B|-------------------------------------------|
G|----14----14----10----10----9----9---9---9-|
D|-11----11----12----12----11---11---9---9---| (2x)
A|-------------------------------------------|
E|-------------------------------------------|

GUITAR 2:
e|----------------------------------------------|
B|----------------------------------------------|
G|-22-(feedback)-----2-2b~----2/14--------------|
D|-xx-------------------------------(pickslide)-|
A|-00-----------2-0-----------------------------|
E|----------------------------------------------|

::REPEAT PRE CHORUS HERE::

::REPEAT CHORUS (PLAY 4x)::

::ENDING GUITAR::

GUITAR 1:
e|-9-----------------------9---------------------9------------------------9----|
B|---10---12--10----10-------10----12--10----10----10----12--14-10----12----10-|
G|---------------13----13--------9--------13-----------9------------9----------|
D|-----------------------------------------------------------------------------|
A|-----------------------------------------------------------------------------|
E|-----------------------------------------------------------------------------|

GUITAR 2:
e|-------------------------------------------------------------------|
B|-------------------------------------------------------------------|
G|-22222222444444446666666677774444-22222222444444446666666677774444-|
D|-xxxxxxxxxxxxxxxxxxxxxxxxxxxxxxxx-xxxxxxxxxxxxxxxxxxxxxxxxxxxxxxxx-|
A|-00000000222222224444444455552222-00000000222222224444444455552222-|
E|-------------------------------------------------------------------|