Angels And Airwaves - It Hurts Chords & Tabs

 

It Hurts Chords & Tabs

Angels And Airwaves Chords & Tabs

Version: 2 Type: Tab

It Hurts Tab

   
As found on b182.com.
also listen on www.myspace.com/lastlookdown

intro part 1 (guitar 1)
E|-10---10---10---10---||
B|----9----9----9----9-||
G|---------------------||
D|---------------------|| x3
A|---------------------||
E|---------------------||

intro part 1 (guitar 2)
E|-------------------------------------||
B|-------------------------------------||
G|-99-9-9-9-77-7-7-7-66-6-6-6-77-7-7-7-||
D|-------------------------------------||
A|-------------------------------------||
E|-------------------------------------||

intro part 2 (guitar 1)
E|---5---5-------------------------||
B|-----------6---6---5---5---5---5-||
G|-6---6---7---7---6---6---4---4---||
D|---------------------------------|| x4
A|---------------------------------||
E|---------------------------------||

intro part 2 (guitar 2)
E|------------------||
B|------------------||
G|------------------||
D|------------------|| x8
A|-0000000000000000-||
E|------------------||

chord played in rythem through intro (listen for timing)
E|---||
B|---||
G|-7-||
D|-7-||
A|-5-||
E|---||

12 beat pause

chorus ("it hurts" x?)
E|---------------------------------||
B|---------------------------------||
G|-2-2-2-2-4-4-4-4---------7-7-7-7-||
D|-2-2-2-2-4-4-4-4-4-4-4-4-7-7-7-7-|| x2
A|-0-0-0-0-2-2-2-2-4-4-4-4-5-5-5-5-||
E|-----------------2-2-2-2---------||
[ Tab from: http://www.guitartabs.cc/tabs/a/angels_and_airwaves/it_hurts_tab_ver_2.html ]
interlude riff (guitar 1)
E|-5h7p5h7-9-5-0-5-7~5h7p5h7-9-5-0-5-7~5h7p5h7-9-5-0-5-7~9-5~-0-7~-9-5~||
B|---------------------------------------------------------------------||
G|---------------------------------------------------------------------||
D|---------------------------------------------------------------------||
A|---------------------------------------------------------------------||
E|---------------------------------------------------------------------||

interlude riff (guitar 2) (effect used, assumed chords)
E|-------------------------------------||
B|-------------------------------------||
G|-------------------------------------||
D|-77777777-66666666-77777777-99999999-|| x2
A|-xxxxxxxx-xxxxxxxx-xxxxxxxx-xxxxxxxx-||
E|-55555555-44444444-55555555-77777777-||

verse is the same as guitar 2's part for the interlude, except 4 times
pre-chorus (guitar 1) is the same as guitar one's intro part 1 but 4 times

pre-chorus (guitar 2) (hard to hear w/ bass)
E|------------------------------------------------------------------------||
B|----------------------------------------------------------------9999999-||
G|----------77777777----------99999999----------77777777----------9999999-||
D|-77777777-77777777-77777777-99999999-44444444-77777777-77777777-9999999-||
A|-77777777-55555555-77777777-77777777-44444444-55555555-77777777-7777777-||
E|-55555555----------55555555----------22222222----------55555555---------||

fades into chorus

*NOTE*
this is only a small section of the song, which was played on a recent Tom
Delonge interview. find details on www.b182.com