Angels And Airwaves - Demise Chords & Tabs

 

Demise Chords & Tabs

Angels And Airwaves Chords & Tabs

Version: 1 Type: Tab

Demise Tab

   
Angels And Airwaves – Demise       
by: BRANMAN3000 of STONEY CREEK, ONT.

E---------------------------------------|
B---------------------------------------|
G--9-99-99/-8-88-88/-6-66-66/-4-44-44---|
D--9-99-99/-8-88-88/-6-66-66/-4-44-44---|
A--7-77-77/-6-66-66/-4-44-44/-2-22-22---|
E---------------------------------------| x 2

E-------------------------------------|
B-----------5--0-----------5--0-------|
G-2222-2222------4444-4444------------|
D-2222-2222------4444-4444------------|
A-0000-0000------2222-2222------------|
E-------------------------------------|

E-------------------------------------------------------------------------|
B-----------5--0-----------------------0--5-----------0--5-----------0--5-|
G-2222-2222------4444-4444---6666-6666------4444-4444------2222-2222------|
D-2222-2222------4444-4444---6666-6666------4444-4444------2222-2222------|
A-0000-0000------2222-2222---4444-4444------2222-2222------0000-0000------|
E-------------------------------------------------------------------------|

E-----------------|
B-----------------|
G-4444-4444-44/---|
D-4444-4444-44/---|
A-2222-2222-22/---|
E-----------------|

E------------------------------------------------------------------------|
B------------------------------------------------------------------------|
G-6-*6666-66666666--2-*2222-22222222--9-*9999-99999999--4-*4444-44444444-|
D-6-*6666-66666666--2-*2222-22222222--9-*9999-99999999--4-*4444-44444444-|
A-4-*4444-44444444--0-*0000-00000000--7-*7777-77777777--2-*2222-22222222-|
E------------------------------------------------------------------------|


E------------------------------------------------------------------------|
B------------------------------------------------------------------------|
G-6-*6666-66666666--2-*2222-22222222-------------------------------------|
D-6-*6666-66666666--2-*2222-22222222--2-*2222-22222222--2-*2222-22222222-|
A-4-*4444-44444444--0-*0000-00000000--2-*2222-22222222--2-*2222-22222222-|
E-------------------------------------0-*0000-00000000--0-*0000-00000000-|

E------------------------------------|
B------------------------------------|
G-4/6--4444-4444—-4/6-4444-4444--4/--|
D-4/6--4444-4444— 4/6-4444-4444—-4/--|
A-2/4--2222-2222—-2/4-2222-2222—-2/--|
E------------------------------------|
[ Tab from: http://www.guitartabs.cc/tabs/a/angels_and_airwaves/demise_tab.html ]
E------------------------------------------------------------------------|
B------------------------------------------------------------------------|
G-6-*6666-66666666--2-*2222-22222222--9-*9999-99999999--4-*4444-44444444-|
D-6-*6666-66666666--2-*2222-22222222--9-*9999-99999999--4-*4444-44444444-|
A-4-*4444-44444444--0-*0000-00000000--7-*7777-77777777--2-*2222-22222222-|
E------------------------------------------------------------------------|

E------------------------------------------------------------------- ---|
B-------------------------------------------------------------------- --|
G-6-*6666-66666666--2-*2222-22222222--------------------4-*4444-4444444-|
D-6-*6666-66666666--2-*2222-22222222--2-*2222-22222222--4-*4444-4444444-|
A-4-*4444-44444444--0-*0000-00000000--2-*2222-22222222--2-*2222-2222222-|
E-------------------------------------0-*0000-00000000------------------|

E------------------------------------------------------------------------|
B------------------------------------------------------------------------|
G-6-*6666-66666666--2-*2222-22222222--9-*9999-99999999--4-*4444-44444444-|
D-6-*6666-66666666--2-*2222-22222222--9-*9999-99999999--4-*4444-44444444-|
A-4-*4444-44444444--0-*0000-00000000--7-*7777-77777777--2-*2222-22222222-|
E------------------------------------------------------------------------|




E--------------------------------------|
B--------------------------------------|
G-444444/11-11-11/13-13-13/14---2-2----|
D-444444/11-11-11/13-13-13/14---2-2----|
A-222222/-9--9—-9/11-11-11/12---0-0----|
E--------------------------------------|

E---------------------------|
B---------------------------|
G-2-222/4-444/6-6666666666--|
D-2-222/4-444/6-6666666666--|
A-0-000/2-222/4-4444444444--|
E---------------------------|

E----------------------------|
B----------------------------|
G-2-222/4-444/6-6666/999/4---|
D-2-222/4-444/6-6666/999/4---|
A-0-000/2-222/4-4444/777/2---|
E----------------------------|

E---------------------------|
B---------------------------|
G-2-222/4-444/6-6666/2-2222-|
D-2-222/4-444/6-6666/2-2222-|
A-0-000/2-222/4-4444/0-0000-|
E---------------------------|

E-------------------------------------------------------------------|
B-------------------------------------------------------------------|
G-2-222/4-444/6666-6666-66/4444-4444-44/2222-2222-22/4444-4444-44---|
D-2-222/4-444/6666-6666-66/4444-4444-44/2222-2222-22/4444-4444-44---|
A-0-000/2-222/4444-4444-44/2222-2222-22/0000-0000-00/2222-2222-22---|
E-------------------------------------------------------------------|




E-----------------------------------------------------|
B-----------------------------------------------------|
G-6666-6666-66/4444-4444-44/2222-2222-22/4444-4444-44-|
D-6666-6666-66/4444-4444-44/2222-2222-22/4444-4444-44-|
A-4444-4444-44/2222-2222-22/0000-0000-00/2222-2222-22-|
E-----------------------------------------------------|

Abrupt ending.

*That means there’s palm mute.