Angels And Airwaves - Adventure Chords & Tabs

 

Adventure Chords & Tabs

Angels And Airwaves Chords & Tabs

Version: 4 Type: Tab

Adventure Tab

ANGELS AND AIRWAVES
:THE ADVENTURE:
Tabbed By: Johnny T.
Includes: Lead Guitar and Rhythm Guitar in standard tuning
Comments: This is the way my band covers it. It's a 100% right...so enjoy!

|-----------------------------|
|LEAD GUITAR:                 |
|-----------------------------|
 
INTRO:
|--19-----19-------(19)-|-(19)-------------|
|------19---------------|------------------|
|-----------------------|------------------|
|-----------------------|------------------|
|-----------------------|------------------|
|-----------------------|------------------|

|------------------------|----------------------|
|------------------------|----------------------|
|-------8---------9---8--|---------8--------9-8-|
|--9-9-----9-8-8---------|---9--9----9-8-8------|
|------------------------|----------------------|
|------------------------|----------------------|
PM..............................................
 
PRE-VERSE:
|--------------------|-----------------|-----------------|-----------------|
|--------------------|-----------------|-----------------|-----------------|
|-11-11-11-9-9-9-8-8-|-9-9-9-8-8-8-----|-9-9-9-8-8-8-----|-----------------|
|--------------------|-------------9-9-|-------------9-9-|-----------------|
|--------------------|-----------------|-----------------|-9-9-9-7-7-7-6-6-|
|--------------------|-----------------|-----------------|-----------------|

|---------------------|-------------------|
|---------------------|-------------------|
|-11-----11-----11-13-|-9-----9-----8-(8)-|
|----9-9----9-9-------|---9-9---9-9-------| (X2)
|---------------------|-------------------|
|---------------------|-------------------|
PM.......................................
[ Tab from: http://www.guitartabs.cc/tabs/a/angels_and_airwaves/adventure_tab_ver_4.html ]
|--------------------|-----------------|-----------------|-----------------|
|--------------------|-----------------|-----------------|-----------------|
|-11-11-11-9-9-9-8-8-|-9-9-9-8-8-8-----|-9-9-9-8-8-8-----|-----------------|
|--------------------|-------------9-9-|-------------9-9-|-----------------|
|--------------------|-----------------|-----------------|-9-9-9-7-7-7-6-6-|
|--------------------|-----------------|-----------------|-----------------|
 
VERSE:
|-----------|----------------|----------|-----------------|
|-----------|----------------|----------|-----------------|
|-----------|-9-x-x-9-x-x-8--|----------|-9-x-x-9-x-x-8---|
|--9~-------|----------------|-9~-------|-----------------|
|-----------|----------------|----------|-----------------|
|-----------|----------------|----------|-----------------|
PM            .............               .............
 
CHORUS:
|--19-----19-------(19)-|-(19)-------------|
|------19---------------|------------------|
|-----------------------|------------------|
|-----------------------|------------------|
|-----------------------|------------------|
|-----------------------|------------------|
 
PRE-VERSE:
|--------------------|-----------------|-----------------|-----------------|
|--------------------|-----------------|-----------------|-----------------|
|-11-11-11-9-9-9-8-8-|-9-9-9-8-8-8-----|-9-9-9-8-8-8-----|-----------------|
|--------------------|-------------9-9-|-------------9-9-|-----------------|
|--------------------|-----------------|-----------------|-9-9-9-7-7-7-6-6-|
|--------------------|-----------------|-----------------|-----------------|
 
INTERLUDE:
|--------------|--------------|--------------|--------------|
|--------------|--------------|--------------|--------------|
|--------------|--------------|--------------|--------------|
|-9--9-8-9--9--|-9--9-8-9--9--|-9--9-8-9--9--|-9--9-8-9--9--|
|--------------|--------------|--------------|--------------|
 
OUTRO CHORUS:
|-----------------------|----------------------|
|--12--12----14---14-14-|-12--12----14---14-14-|
|---------11------------|--------11------------|
|-----------------------|----------------------|
|-----------------------|----------------------|
|-----------------------|----------------------|
 
OUTRO: (6X)
|------------------|-----------------|-----------------|------------------|
|------------------|-----------------|-----------------|------------------|
|--------------9-8-|-------------9-8-|-------------9-8-|-------------9-8--|
|--9-9-8-9-9-9-----|-9-9-8-9-9-9-----|-9-9-8-9-9-9-----|-9-9-8-9-9-9------| 
|------------------|-----------------|-----------------|------------------|
PM .....................................................................


|-----------------------------|
|RHYTHM GUITAR:               |
|-----------------------------|

INTRO:
|------------------|-----------------|------------------|-----------------|
|------------------|-----------------|------------------|-----------------|
|-----11-------11--|------11-----11--|------11------11--|------11-----11--|
|--9--------9------|--8-------8------|------------------|--8-------8------|
|------------------|-----------------|--11------11------|-----------------|
|------------------|-----------------|------------------|-----------------|
 
PRE-VERSE:
|-------------------|-----------------|-----------------|-----------------|
|-------------------|-----------------|-----------------|-----------------|
|-------------------|-----------------|-----------------|-----------------|
|-6--6--6-6-6-6-6-6-|-9-9-9-9-9-9-9-9-|-9-9-9-9-9-9-9-9-|-4-4-4-4-4-4-4-4-|
|-6--6--6-6-6-6-6-6-|-7-7-7-7-7-7-7-7-|-9-9-9-9-9-9-9-9-|-4-4-4-4-4-4-4-4-|
|-4--4--4-4-4-4-4-4-|-0-0-0-0-0-0-0-0-|-7-7-7-7-7-7-7-7-|-2-2-2-2-2-2-2-2-|
 
VERSE:
|-------------------------------------------------------------------------|
|-------------------------------------------------------------------------|
|-8~-------9~-------8~-------9~-------8~-------9~-------8~-------6~-------|
|-X--------X--------X--------X--------X--------X--------X--------X--------|
|-6~-------7~-------6~-------7~-------6~-------7~-------6~-------4~-------|
|-------------------------------------------------------------------------|
 
CHORUS:
|------------------|-----------------|------------------|-----------------|
|------------------|-----------------|------------------|-----------------|
|-----11-------11--|------11-----11--|------11------11--|------11-----11--|
|--9--------9------|--8-------8------|------------------|--8-------8------|
|------------------|-----------------|--11------11------|-----------------|
|------------------|-----------------|------------------|-----------------|

INTERLUDE:
|----------------------------------|
|----------------------------------|
|-11~/-----9~/-----8~/-----4~/-----|
|--X-------X-------X-------X-------|
|--9-------7-------6-------2-------|
|----------------------------------|
 
OUTRO CHORUS:
|----------------------|----------------------|
|----------------------|----------------------|
|--4---4-----4-4-----4-|--3---3-----3-3-----3-|
|--4---4-----4-4-----4-|--4---4-----4-4-----4-|
|--2---2-----2-2-----2-|--1---1-----1-1-----1-|
|----------------------|----------------------|

|----------------------|-----------------------|
|----------------------|-----------------------|
|--4---4-----4-4-----4-|--4---4-----4-4-----4--|
|--4---4-----4-4-----4-|--4---4-----4-4-----4--|
|--X---X-----X-X-----X-|--X---X-----X-X-----X--|
|--4---4-----4-4-----4-|--2---2-----2-2-----2--|
 
OUTRO:
|----------|------------|------------|--------|
|----------|------------|------------|--------|
|----------|------------|------------|--------|
|-4--------|-(4)--------|-(4)--------|-(4)----|
|-2--------|-(2)--------|-(2)--------|-(2)----|
|----------|------------|------------|--------|