Angels And Airwaves - Adventure Chords & Tabs

 

Adventure Chords & Tabs

Angels And Airwaves Chords & Tabs

Version: 2 Type: Bass Tab

Adventure Bass Tab

-Intro After Effects (When you can actually hear the bass)
------------------------------------------------------------------|
------------------------------------------------------------------|
------------------77777777-7/9--22222222--------------------------|
----44444444-------------------------------22222222---------------|
then
------------------------------------------------------------------|
------------------------------------------------------------------|
------------------77777777-7/9--22222222--------------------------|
----44444444-------------------------------22222222---------------|
then
------------------------------------------------------------------|
------------------------------------------------------------------|
------------------77777777-7\8--22222222-2/4-11111111-------------|
----44444444------------------------------------------------------|
then
------------------------------------------------------------------|
------------------------------------------------------------------|
------------------77777777-7/9--22222222--------------------------|
----44444444-------------------------------22222222---------------|
then
-End Intro
Verses -
------------------------------------------------------------------|
------------------------------------------------------------------|
------------------77777777---22222222--44444444-------------------|
----44444444------------------------------------------------------|
"...same last dream again..."
------------------------------------------------------------------|
-------------------------------------------------44444444---------|
------------------77777777-7/9--22222222--------------------------|
----44444444------------------------------------------------------|
"...just as the four walls close..."
------------------------------------------------------------------|
------------------------------------------------------------------|
------------------77777777-7\8--22222222-2/4-11111111-------------|
----44444444------------------------------------------------------|
"...know my dearest friends..."
------------------------------------------------------------------|
-----------------------------------------------------44444444-----|
-----------------77777777-7/9--22222222-2/4-----------------------|
----44444444------------------------------------------------------|
"...everything that is dead..."
-End Verses
Chorus
------------|
------------|
-2~---------|(I think you let this ring during the chorus)
------------|(The Hey Yo Parts)
-End Chorus
-Last 4 (I Can't Live/Breathe) Parts (I'm not sure if there is even bass in there but 
I am not a doctor, It just sounds like there is, listen to the song and you might agree 
me)
------------------------------------------------------------------|
------------------------------------------------------------------|
---22222222---44444444---66666666---44444444----------------------|
------------------------------------------------------------------|
-End
-Outro
-----------------------------------------------|
-----------------------------------------------|
--22222222---11111111----------------11111111--|
------------------------------44444444---------|x4
-----------------------------------------------|
-----------------------------------------------|
-2~--------------------------------------------|(Let this ring after the 4th time)
-----------------------------------------------|
-End Outro
[ Tab from: http://www.guitartabs.cc/tabs/a/angels_and_airwaves/adventure_btab_ver_2.html ]