Angels And Airwaves - A Littles Enough Chords & Tabs

 

A Littles Enough Chords & Tabs

Angels And Airwaves Chords & Tabs

Version: 1 Type: Tab

A Littles Enough Tab

Angels & Airwaves - A Little’s Enough

intro=organ

verse
E|-------------------------------------------------------------||
B|---9h10---9h10~---9h10---9h10~---9h12---9h12~---9h10---9h10~-||
D|-9------9-------9------9-------9------9-------9------9-------||
G|-------------------------------------------------------------|| x2 (second time, skip 
A|-------------------------------------------------------------||           first fourth)
E|-------------------------------------------------------------||
[ Tab from: http://www.guitartabs.cc/tabs/a/angels_and_airwaves/a_littles_enough_tab.html ]
Pre-chorus                          *the pre-schorus riff is really underneath the verses
E|------------------||               too, it just hard to hear and, overall, unneccesary
B|------------------||
G|------------------||
D|-9-9-9-9-9-9-9-9--||
A|--9-9-9-9-9-9-9-9-||
E|------------------||

interlude (delay effect)
E|---------------------------------------||
B|---------------------------------------||
G|---------------------------------------||
D|---------------------------------------||
A|-00000000------2222---------------0000-||
E|----------4444------22222222-0000------||
pm.......................................

verse
pre-chorus

chorus
E|------------------------------------||
B|------------------------------------||
G|-2-2---2---------------------7-7----||
D|-x-x---x-6-6---6-4-4---4-2-2-x-x-6/-||
A|-0-0~--0-x-x---x-x-x---x-x-x-5-5-x/-||
E|---------4-4~--4-2-2~--2-0-0~----4/-||

bridge=weird delay pm stuff
chorus x2
end on a octive chord

comments/questions to patheticloser96@rock.com
well, it's a start