Angels - No Secrets Chords & Tabs

 

No Secrets Chords & Tabs

Angels Chords & Tabs

Version: 1 Type: Tab 0 ratings
1 star 2 stars 3 stars 4 stars 5 stars
comments

No Secrets Tab

My first tab..

Pretty Basic solo, sounds awesome if you work on it

Hope you all enjoy the song as it is one of my favourites!!!

It should be pretty accurate but just work around it, basic scales really..

Just paste the tab into notepad & the text should unwrap fine, or email me for the .txt file!

Enjoy!

e|-----------------------------------------------------------|
B|-----------------------------------------------------------|
G|--12b14--14-12-11-12-12p11---------------------------------|
D|---------------------------12p11---------------------------|
A|--------------------------------14p12-9h10p9-7p5p4---------|
E|-----------------------------------------------------------|

[ Tab from: http://www.guitartabs.cc/tabs/a/angels/no_secrets_tab.html ]
e|--------------------------------------------12--15----17b19--r17b19--15-14-14h15---|
B|--15b17--r15b17-13-12h13------------------12--12--------------------------------15-|
G|-----------------------12-----12 14h12---------------------------------------------|
D|---------------------------/14---------14------------------------------------------|
A|-----------------------------------------------------------------------------------|
E|-----------------------------------------------------------------------------------|


e|-------------------------------------------12h14-15b17r15----r22b24--20p19h20---------|
B|---15-13h12-----------------------12h13h15------------------------------------20------|
G|------------14-12------12---12h14-----------------------------------------------------|
D|------------------14------------------------------------------------------------------|
A|--------------------------------------------------------------------------------------|
E|--------------------------------------------------------------------------------------|

r= rake bend. eg: bend and low down 1 note then rebend 


Any help? email me at adam[at]crazyninjas[dot]com
Comments