Angelo Badalamenti - Laurens Walking Chords & Tabs

 

Laurens Walking Chords & Tabs

Angelo Badalamenti Chords & Tabs

Version: 1 Type: Tab 1 rating
1 star 2 stars 3 stars 4 stars 5 stars
comments

Laurens Walking Tab

   
Author:    Angelo Badalamenti
Title:     Laurens Walking
tabbed by: Simone Perandini


THIS IS THE COMPLETE SONG!!!! Angelo does this arpeggio troughout
the whole 3 minutes!! ARG!


 The arpeggio in standard tuning position

          E                            E/C#
 e|-------------0-------2-----0---------------0-------2-----0--------|
 B|---------------0---0---0-----0---------------0---0---0-----0------|
 G|-----------1-----1-------1-----1---------1-----1-------1-----1----|
 D|---------2-----------------------------2--------------------------|
 A|-------2-----------------------------4----------------------------|
 E|------------------------------------------------------------------|
[ Tab from: http://www.guitartabs.cc/tabs/a/angelo_badalamenti/laurens_walking_tab.html ]
          E                           E/C# with variation
 e|-------------0-------2-----0---------------0----------0----0------|
 B|---------------0---0---0-----0---------------0---0-4-----4--------|
 G|-----------1-----1-------1-----1---------1-----1------------------|
 D|---------2-----------------------------2--------------------------|
 A|-------2---------------------------3/4----------------------------|
 E|------------------------------------------------------------------|

This is the arpeggio Angelo goes trough the whole song.
Sometimes he does the variation on the E/C# shown above on the second
line, adding a slide and a D# on the second string.


To make things easier you can do the arpeggio in the open E tuning
position, which would be something like this one
        
             E                            E/C#
 e|-------------0-------2-----0---------------0-------2-----0--------|
 B|---------------0---0---0-----0---------------0---0---0-----0------|
G#|-----------0-----0-------0-----0---------0-----0-------0-----0----|
 E|---------0-----------------------------0--------------------------|
 B|-------0-----------------------------2----------------------------|
 E|------------------------------------------------------------------|


               there are NO LYRICS IN THIS SONG! 



Have fun!



--Advice is what we ask for when we already know the answer but wish we didn't. (Erica Jong)
#########################################################################
 Compiled with TabPlayer :: http://www.simoneperandini.com/tabplayer.htm
#########################################################################
Comments