Angelcorpse - Wolflust Chords & Tabs

 

Wolflust Chords & Tabs

Angelcorpse Chords & Tabs

Version: 1 Type: Tab 0 ratings
1 star 2 stars 3 stars 4 stars 5 stars
comments

Wolflust Tab

Wolflust by Angelcorpse
Transcribed by Dunwich

To play this song I tune to drop D...Angelcorpse probably tunes the entire
guitar down one step, but I'm lazy and I hate retuning my guitar. 
If this bothers you, make the appropriate
adjustments.

Intro/Main Riff:

|-------------------------|
|-------------------------|
|-8\5-5-8\7---------------|
|-8\5-5-8\7---5/6----6-6--|
|-6\3-3-6\5---5/6----6-6--|
|-----------0-5/6-0"-6-6--|
Verse:

|-------------|
|-------------|
|----4"-------|
|-3"-4"-------|
|-3"-2"-------|
|-3"----------|

Chorus:

|---------------------------------------------|
|---------------------------------------------|
|-77-7-77-7-55-5---------------------------3--|
|-77-7-77-7-55-5-5-4-0H1-1-11-1-1/4-4-44-4-3--|
|-55-5-55-5-33-3-5-4-0H1-1-11-1-1/4-4-44-4-1--|
|----------------5-4-0H1-1-11-1-1/4-4-44-4----|

Solo Riff 1:

(slowly the first time)

The timing is strange for this one...I'm not absolutely
sure this is correct.
[ Tab from: http://www.guitartabs.cc/tabs/a/angelcorpse/wolflust_tab.html ]
|-----------------------------------------------|
|-----------------------------------------------|
|-----------------------------------------------|
|-0----0----3----0------------0------------3-1--|
|-0----0----3----0-3/4-3/4----0------------3-1--|
|-0-0"-0-0"-3-0"-0-3/4-3/4-0"-0-0"-3/4-3/4-3-1--|


Solo Riff 2:

|----------------------------------------------|
|----------------------------------------------|
|----------------------------------------------|
|------------------------------------------4-4-|
|----------------6/7-6/7-----------6/7-6/7-4-4-|
|-3"-4-3"-6-3"-4-6/7-6/7-3"-4-3"-6-6/7-6/7-4-4-|

Interlude:

Riff 1:

|--------------------|
|--------------------|
|--------------------|
|-------0-1-5-8-4----|
|-------0-1-5-8-4----|
|0(x24)-0-1-5-8-4----|

Riff 2:

|-----------------------|
|-----------------------|
|-----------------------|
|-----------------------|
|--------------1"-5"-4"-|
|0"-1"-5"-4"-1"---------|

Riff 3

|---------------------------------------------|
|-3--4-4-3--------------3--4-4-3--------------|
|-2--3-3-2--6--6\5-5----2--3-3-2--------------|
|-0--1-1-0-----------6--0--1-1-0--6-6\5-5-9---|
|-0--1-1-0--4--4\3-3----0--1-1-0--------------|
|-0--1-1-0-----------6--0--1-1-0--6-6\5-5-9---|
Comments