Angelcorpse - Stormgods Unbound Chords & Tabs

 

Stormgods Unbound Chords & Tabs

Angelcorpse Chords & Tabs

Version: 1 Type: Tab 0 ratings
1 star 2 stars 3 stars 4 stars 5 stars
comments

Stormgods Unbound Tab

                        ANGELCORPSE - STORMGODS UNBOUND
                         From the Album THE EXTERMINATE
                    Copyright 1999 (Osmose/Olympic Records)

                          Version 1.0 - March 2001

Transcribed by: Chris Ninman

For Questions, Comments, Newest Version, or Corrections contact
       Chris Ninman at:   snowballingblood@hotmail.com

Check Out DEATH WARP, With More Transcriptions On It:
               http://tiger.towson.edu/~dalvis1

.  - palm mute                    /  - slide up to
\  - slide down to                ~  - vibrato
h  - hammer on                    b  - bend
p  - pull off                          Suffixes for bend
ph - pinch harmonic                     f - full bend    h - half bend
*  - see comment                        r - release      t - tap bend
X  - percussion mute                    ~ - vibrato bend
@  - slight palm mute             () - ghost note, sustained note
"  - tremolo pick until next note

Tune to E flat


Riff 1  (4 times)
|----------------------------------|
|----------------------------------|
|-----5----------------------------|
|-----5----6"-5"-------------3"-5"-|
|-6-7-3----4"-3"-5"-4"-5"-7"-1"-3"-|
|-4-5------------3"-2"-3"-5"-------|
  . .

Riff 2  (2 times)
|-------------------------------------------------------------|
|-------------------------------------------------------------|
|-------------------------------------------------------------|
|-7"-6"-------3"-6"-5"-8"-7"-8"------10"-7"-9"-6"-------------|
|-5"-4"-8"-7"-1"-4"-3"-6"-5"-6"-9"-8"-8"-5"-7"-4"-5"-6"-3"-4"-|
|-------6"-5"-------------5"-6"-7"-6"-------------3"-4"-1"-2"-|


Riff 3  (2 times)
|-------------------------------------|
|-------------------------------------|
|-------------------------------------|
|-------------------------------------|
|-------------------8"-6"-7"----------|
|-8"-7"-3"-2"-7"-6"----------6"-3"-2"-|


Repeat Riff 2  (2 times)
Repeat Riff 3  (2 times)


Riff 4
|--------------------------------------------------|
|--------------------------------------------------|
|-----------------------------------------------5--|
|-------------------4--5------------------------5--|
|-------------------2--3--------------------6-7-3--|
|-4"-3"-5"-4"-1"-0"-2--3--4"-3"-5"-4"-1"-0"-4-5----|
                                            . .
[ Tab from: http://www.guitartabs.cc/tabs/a/angelcorpse/stormgods_unbound_tab.html ]
Repeat Riff 1  (4 times)
Repeat Riff 2  (2 times)
Repeat Riff 3  (2 times)
Repeat Riff 2  (2 times)
Repeat Riff 3  (2 times)
Repeat Riff 4  (2 times)


Riff 5                                         1st ending  
|---------------------------------------------|-------|
|---------------------------------------------|-------|
|---------------------------------------------|-------|
|---------------------------------------------|-------|
|-5"-6"-8"-5"-8"-9"-11"-5"--------------------|-------|
|--------------------------10"-9"-7"-6"-2"-1"-|-2"-3"-|

2nd ending:  Riff 6 with Riff 6a

Riff 6
|----------------------------------------------|
|----------------------------------------------|
|----------------------------------------------|
|-------2h3-4h5--------------------------------|
|------------------4"-3"-----------------------|
|-2"------------2"-------4"-2"-----6"-5"-2"-0"-|


Riff 6a
|--------------------------------------------|
|--------------------------------------------|
|--------------------------------------------|
|--------------------------------------------|
|-4--4--4--4--4--4--4--4--4------------------|
|-2--2--2--2--2--2--2--2--2------6"-5"-2"-0"-|


Riff 7  (1 time)
|-------------------------------------------------------------|
|-------------------------------------------------------------|
|-------------------------------------------------------------|
|---------9-------7-----------------------9-------7-----------|
|-2-------7-------5-------2h33/5--2-------7-------5-----------|
|-0--0000----0000----0000-0h11/3--0--0000----0000----00000000-|
     ....    ....    ....            ....    ....    ........

Repeat Riff 6  (1 time)

Riff 8  (1 time)
|---------------------------------------------------------------|
|---------------------------------------------------------------|
|---------------------------------------------------------------|
|---------8------------------------------8----------------------|
|-7-------6-------9-------8--8---7-------6-------9-------8--8---|
|-5--5555----5555-7--5555-6--6---5--5555----5555-7--5555-6--6---|
     ....    ....    ....           ....    ....    ....

Repeat Riff 6  (1 time)
Repeat Riff 7  (1 time)
Repeat Riff 6  (1 time)
Repeat Riff 8  (2 times)
Repeat Riff 4  (4 times)
Repeat Riff 1  (4 times)
Repeat Riff 2  (2 times)
Repeat Riff 3  (2 times)
Repeat Riff 2  (2 times)
Repeat Riff 3  (2 times)
Repeat Riff 4  (4 times)
Comments