Angelcorpse - Phallelujah Chords & Tabs

 

Phallelujah Chords & Tabs

Angelcorpse Chords & Tabs

Version: 1 Type: Tab 0 ratings
1 star 2 stars 3 stars 4 stars 5 stars
comments

Phallelujah Tab

   
ANGELCORPSE - PHALLELUJAH

A
I---------------------------------------------------------
I---------------------------------------------------------
I---------------------------------------------------------
I-2------7------8------3------2------7--------------------
I-2------7------8------3------2------7------333222--------
I-O--0-0-5--0-0-6--0-0-1--0-0-0--0-0-5--0-0-------333222--

----------------------------------------------------------I
----------------------------------------------------------I
----------------------------------------------------------I
--2------7------8------3------2------7--------------------I
--2------7------8------3------2------7------333222333555--I
--O--0-0-5--0-0-6--0-0-1--0-0-0--0-0-5--0-0---------------I

FILL 1
I---------------I
I---------------I
I----7/8-----5--I
I-7-------8-----I
I----5/6-----3--I
I-5-------6-----I

B
I--------------------------------------------------I
I--------------------------------------------------I
I--------------------------------------------------I
I--------7/8---------5------------7/8--------------I
I-7------5/6--8------3------7-----5/6--8------4-3--I
I-5--0-0------6--0-0----0-0-5-0-0------6--0-0-2-1--I

C
I------------------------------------------------------------------I
I------------------------------------------------------------------I
I------------------------------------------------------------------I
I-------------------------------7----------------------------------I
I-7-6-------3/4-3-7-6-------3/4-5-7-6-------3/4-3-7-6-------3/4-3--I
I-5-4-0-0-0-1/2-1-5-4-0-0-0-1/2---5-4-0-0-0-1/2-1-5-4-0-0-0-1/2-1--I

D
I--------------------------------------------------
I--------------------------------------------------
I--------------------------------------------------
I-------------------------------------6-6-6--------
I-5-5-5-8-8-8-4-4-4-7-7-7-5-5-5-8-8-8-4-4-4-7-7-7--
I-3-3-3-6-6-6-2-2-2-5-5-5-3-3-3-6-6-6-------5-5-5--


---------------------------------------------------I
---------------------------------------------------I
---------------------------------------------------I
--------------------------------8-8-8-7-7-7101010--I
--5-5-5-8-8-8-4-4-4-7-7-7-5-5-5-6-6-6-5-5-5-8-8-8--I
--3-3-3-6-6-6-2-2-2-5-5-5-3-3-3--------------------I
[ Tab from: http://www.guitartabs.cc/tabs/a/angelcorpse/phallelujah_tab.html ]
E
I--------------------------------------------------------------------
I--------------------------------------------------------------------
I--------------------------------------------------------------------
I--------------------------------------------------------------------
I----------------------------------------------------------22221111--
I-33332222000022223333222266662222-333322220000222233332222----------


---------------------------------------------------------------------
---------------------------------------------------------------------
---------------------------------------------------------------------
---------------------------------------------------------------------
-----------------------------------------------------------22223333--
--33332222000022223333222266662222-333322220000222233332222----------

F
I-------------------------------------------------------------------I
I-------------------------------------------------------------------I
I-------------------------------------------------------------------I
I-----------------22221111------------------------4444333344446666--I
I-44443333----------------2222111144443333--------------------------I
I---------44443333------------------------44443333------------------I

G
I-------------------------------------------------
I-------------------------------------------------
I-------------------------------------------------
I-------------------------------------------------
I-----777777555555666666222222------------111111--
I-0-1-------------------------333333222222--------

--------------------------------------------------
--------------------------------------------------
--------------------------------------------------
------999999777777------444444------333333--------
------------------888888------444444------333222--
--0-1---------------------------------------------

--------------------------------------------------
--------------------------------------------------
--------------------------------------------------
--------------------------------------------------
------777777555555666666222222------------111111--
--0-1-------------------------333333222222--------

--------------------------------------------------I
--------------------------------------------------I
--------------------------------------------------I
------999999777777------------------111111--------I
------------------888888777777333333------222111--I
--0-1---------------------------------------------I

mail me at t.lelkes@dszh.nl for questions or comments or something else.
Comments